  0
SECTION
  2
HEADER
  9
$ACADVER
  1
AC1015
  9
$ACADMAINTVER
 70
     6
  9
$DWGCODEPAGE
  3
ANSI_1254
  9
$INSBASE
 10
0.0
 20
0.0
 30
0.0
  9
$EXTMIN
 10
0.0
 20
0.0
 30
0.0
  9
$EXTMAX
 10
279.4
 20
215.9
 30
0.0
  9
$LIMMIN
 10
0.0
 20
0.0
  9
$LIMMAX
 10
279.4
 20
215.9
  9
$ORTHOMODE
 70
     0
  9
$REGENMODE
 70
     1
  9
$FILLMODE
 70
     1
  9
$QTEXTMODE
 70
     0
  9
$MIRRTEXT
 70
     1
  9
$LTSCALE
 40
1.0
  9
$ATTMODE
 70
     1
  9
$TEXTSIZE
 40
3.5
  9
$TRACEWID
 40
1.0
  9
$TEXTSTYLE
  7
Standard
  9
$CLAYER
  8
0
  9
$CELTYPE
  6
ByLayer
  9
$CECOLOR
 62
   256
  9
$CELTSCALE
 40
1.0
  9
$DISPSILH
 70
     0
  9
$DIMSCALE
 40
1.0
  9
$DIMASZ
 40
3.5
  9
$DIMEXO
 40
1.0
  9
$DIMDLI
 40
3.75
  9
$DIMRND
 40
0.0
  9
$DIMDLE
 40
0.0
  9
$DIMEXE
 40
1.0
  9
$DIMTP
 40
0.0
  9
$DIMTM
 40
0.0
  9
$DIMTXT
 40
3.5
  9
$DIMCEN
 40
2.5
  9
$DIMTSZ
 40
0.0
  9
$DIMTOL
 70
     0
  9
$DIMLIM
 70
     0
  9
$DIMTIH
 70
     1
  9
$DIMTOH
 70
     1
  9
$DIMSE1
 70
     0
  9
$DIMSE2
 70
     0
  9
$DIMTAD
 70
     1
  9
$DIMZIN
 70
     0
  9
$DIMBLK
  1

  9
$DIMASO
 70
     1
  9
$DIMSHO
 70
     1
  9
$DIMPOST
  1

  9
$DIMAPOST
  1

  9
$DIMALT
 70
     0
  9
$DIMALTD
 70
     3
  9
$DIMALTF
 40
0.0393700787
  9
$DIMLFAC
 40
1.0
  9
$DIMTOFL
 70
     1
  9
$DIMTVP
 40
0.0
  9
$DIMTIX
 70
     0
  9
$DIMSOXD
 70
     0
  9
$DIMSAH
 70
     0
  9
$DIMBLK1
  1

  9
$DIMBLK2
  1

  9
$DIMSTYLE
  2
ISO-25
  9
$DIMCLRD
 70
     0
  9
$DIMCLRE
 70
     0
  9
$DIMCLRT
 70
     0
  9
$DIMTFAC
 40
1.0
  9
$DIMGAP
 40
1.524
  9
$DIMJUST
 70
     0
  9
$DIMSD1
 70
     0
  9
$DIMSD2
 70
     0
  9
$DIMTOLJ
 70
     0
  9
$DIMTZIN
 70
     0
  9
$DIMALTZ
 70
     0
  9
$DIMALTTZ
 70
     0
  9
$DIMUPT
 70
     0
  9
$DIMDEC
 70
     2
  9
$DIMTDEC
 70
     2
  9
$DIMALTU
 70
     2
  9
$DIMALTTD
 70
     3
  9
$DIMTXSTY
  7
Standard
  9
$DIMAUNIT
 70
     0
  9
$DIMADEC
 70
     2
  9
$DIMALTRND
 40
0.0
  9
$DIMAZIN
 70
     0
  9
$DIMDSEP
 70
    44
  9
$DIMATFIT
 70
     3
  9
$DIMFRAC
 70
     0
  9
$DIMLDRBLK
  1

  9
$DIMLUNIT
 70
     2
  9
$DIMLWD
 70
    -2
  9
$DIMLWE
 70
    -2
  9
$DIMTMOVE
 70
     0
  9
$LUNITS
 70
     2
  9
$LUPREC
 70
     2
  9
$SKETCHINC
 40
1.0
  9
$FILLETRAD
 40
10.0
  9
$AUNITS
 70
     0
  9
$AUPREC
 70
     2
  9
$MENU
  1
.
  9
$ELEVATION
 40
0.0
  9
$PELEVATION
 40
0.0
  9
$THICKNESS
 40
0.0
  9
$LIMCHECK
 70
     0
  9
$CHAMFERA
 40
0.0
  9
$CHAMFERB
 40
0.0
  9
$CHAMFERC
 40
0.0
  9
$CHAMFERD
 40
0.0
  9
$SKPOLY
 70
     0
  9
$TDCREATE
 40
2459741.606059364
  9
$TDUCREATE
 40
2459741.481059364
  9
$TDUPDATE
 40
2459741.606059537
  9
$TDUUPDATE
 40
2459741.481059537
  9
$TDINDWG
 40
0.0000000116
  9
$TDUSRTIMER
 40
0.0000000116
  9
$USRTIMER
 70
     1
  9
$ANGBASE
 50
0.0
  9
$ANGDIR
 70
     0
  9
$PDMODE
 70
     0
  9
$PDSIZE
 40
-1.0
  9
$PLINEWID
 40
0.0
  9
$SPLFRAME
 70
     0
  9
$SPLINETYPE
 70
     6
  9
$SPLINESEGS
 70
     8
  9
$HANDSEED
  5
102
  9
$SURFTAB1
 70
     6
  9
$SURFTAB2
 70
     6
  9
$SURFTYPE
 70
     6
  9
$SURFU
 70
     6
  9
$SURFV
 70
     6
  9
$UCSBASE
  2

  9
$UCSNAME
  2

  9
$UCSORG
 10
0.0
 20
0.0
 30
0.0
  9
$UCSXDIR
 10
1.0
 20
0.0
 30
0.0
  9
$UCSYDIR
 10
0.0
 20
1.0
 30
0.0
  9
$UCSORTHOREF
  2

  9
$UCSORTHOVIEW
 70
     0
  9
$UCSORGTOP
 10
0.0
 20
0.0
 30
0.0
  9
$UCSORGBOTTOM
 10
0.0
 20
0.0
 30
0.0
  9
$UCSORGLEFT
 10
0.0
 20
0.0
 30
0.0
  9
$UCSORGRIGHT
 10
0.0
 20
0.0
 30
0.0
  9
$UCSORGFRONT
 10
0.0
 20
0.0
 30
0.0
  9
$UCSORGBACK
 10
0.0
 20
0.0
 30
0.0
  9
$PUCSBASE
  2

  9
$PUCSNAME
  2

  9
$PUCSORG
 10
0.0
 20
0.0
 30
0.0
  9
$PUCSXDIR
 10
1.0
 20
0.0
 30
0.0
  9
$PUCSYDIR
 10
0.0
 20
1.0
 30
0.0
  9
$PUCSORTHOREF
  2

  9
$PUCSORTHOVIEW
 70
     0
  9
$PUCSORGTOP
 10
0.0
 20
0.0
 30
0.0
  9
$PUCSORGBOTTOM
 10
0.0
 20
0.0
 30
0.0
  9
$PUCSORGLEFT
 10
0.0
 20
0.0
 30
0.0
  9
$PUCSORGRIGHT
 10
0.0
 20
0.0
 30
0.0
  9
$PUCSORGFRONT
 10
0.0
 20
0.0
 30
0.0
  9
$PUCSORGBACK
 10
0.0
 20
0.0
 30
0.0
  9
$USERI1
 70
     0
  9
$USERI2
 70
     0
  9
$USERI3
 70
     0
  9
$USERI4
 70
     0
  9
$USERI5
 70
     0
  9
$USERR1
 40
0.0
  9
$USERR2
 40
0.0
  9
$USERR3
 40
0.0
  9
$USERR4
 40
0.0
  9
$USERR5
 40
0.0
  9
$WORLDVIEW
 70
     1
  9
$SHADEDGE
 70
     3
  9
$SHADEDIF
 70
    70
  9
$TILEMODE
 70
     1
  9
$MAXACTVP
 70
    64
  9
$PINSBASE
 10
0.0
 20
0.0
 30
0.0
  9
$PLIMCHECK
 70
     0
  9
$PEXTMIN
 10
1.0000000000E+20
 20
1.0000000000E+20
 30
1.0000000000E+20
  9
$PEXTMAX
 10
-1.0000000000E+20
 20
-1.0000000000E+20
 30
-1.0000000000E+20
  9
$PLIMMIN
 10
0.0
 20
0.0
  9
$PLIMMAX
 10
420.0
 20
297.0
  9
$UNITMODE
 70
     0
  9
$VISRETAIN
 70
     1
  9
$PLINEGEN
 70
     0
  9
$PSLTSCALE
 70
     1
  9
$TREEDEPTH
 70
  3020
  9
$CMLSTYLE
  2
Standard
  9
$CMLJUST
 70
     0
  9
$CMLSCALE
 40
20.0
  9
$PROXYGRAPHICS
 70
     1
  9
$MEASUREMENT
 70
     1
  9
$CELWEIGHT
370
    -1
  9
$ENDCAPS
280
     0
  9
$JOINSTYLE
280
     0
  9
$LWDISPLAY
290
     1
  9
$INSUNITS
 70
     4
  9
$HYPERLINKBASE
  1

  9
$STYLESHEET
  1

  9
$XEDIT
290
     1
  9
$CEPSNTYPE
380
     0
  9
$PSTYLEMODE
290
     1
  9
$FINGERPRINTGUID
  2
{be138f05-8095-4969-8699-2cecfa406365}
  9
$VERSIONGUID
  2
{FAEB1C32-E019-11D5-929B-00C0DF256EC4}
  9
$EXTNAMES
290
     1
  9
$PSVPSCALE
 40
0.0
  9
$OLESTARTUP
290
     0
  0
ENDSEC
  0
SECTION
  2
CLASSES
  0
CLASS
  1
ACDBDICTIONARYWDFLT
  2
AcDbDictionaryWithDefault
  3
ObjectDBX Classes
 90
        0
280
     0
281
     0
  0
CLASS
  1
VISUALSTYLE
  2
AcDbVisualStyle
  3
ObjectDBX Classes
 90
     4095
280
     0
281
     0
  0
CLASS
  1
MATERIAL
  2
AcDbMaterial
  3
ObjectDBX Classes
 90
     1153
280
     0
281
     0
  0
CLASS
  1
SCALE
  2
AcDbScale
  3
ObjectDBX Classes
 90
     1153
280
     0
281
     0
  0
CLASS
  1
TABLESTYLE
  2
AcDbTableStyle
  3
ObjectDBX Classes
 90
     4095
280
     0
281
     0
  0
CLASS
  1
MLEADERSTYLE
  2
AcDbMLeaderStyle
  3
ACDB_MLEADERSTYLE_CLASS
 90
     4095
280
     0
281
     0
  0
CLASS
  1
SUN
  2
AcDbSun
  3
SCENEOE
 90
     1153
280
     0
281
     0
  0
CLASS
  1
ACDBPLACEHOLDER
  2
AcDbPlaceHolder
  3
ObjectDBX Classes
 90
        0
280
     0
281
     0
  0
CLASS
  1
LAYOUT
  2
AcDbLayout
  3
ObjectDBX Classes
 90
        0
280
     0
281
     0
  0
ENDSEC
  0
SECTION
  2
TABLES
  0
TABLE
  2
VPORT
  5
8
330
0
100
AcDbSymbolTable
 70
     1
  0
VPORT
  5
29
330
8
100
AcDbSymbolTableRecord
100
AcDbViewportTableRecord
  2
*Active
 70
     0
 10
0.0
 20
0.0
 11
1.0
 21
1.0
 12
139.7
 22
107.95
 13
0.0
 23
0.0
 14
10.0
 24
10.0
 15
10.0
 25
10.0
 16
0.0
 26
0.0
 36
1.0
 17
0.0
 27
0.0
 37
0.0
 40
215.9
 41
1.2941176471
 42
50.0
 43
0.0
 44
0.0
 50
0.0
 51
0.0
 71
     0
 72
  2000
 73
     1
 74
     3
 75
     0
 76
     0
 77
     0
 78
     0
281
     0
 65
     1
110
0.0
120
0.0
130
0.0
111
1.0
121
0.0
131
0.0
112
0.0
122
1.0
132
0.0
 79
     0
146
0.0
  0
ENDTAB
  0
TABLE
  2
LTYPE
  5
5
330
0
100
AcDbSymbolTable
 70
     6
  0
LTYPE
  5
14
330
5
100
AcDbSymbolTableRecord
100
AcDbLinetypeTableRecord
  2
ByBlock
 70
     0
  3

 72
    65
 73
     0
 40
0.0
  0
LTYPE
  5
15
330
5
100
AcDbSymbolTableRecord
100
AcDbLinetypeTableRecord
  2
ByLayer
 70
     0
  3

 72
    65
 73
     0
 40
0.0
  0
LTYPE
  5
16
330
5
100
AcDbSymbolTableRecord
100
AcDbLinetypeTableRecord
  2
Continuous
 70
     0
  3
Solid line
 72
    65
 73
     0
 40
0.0
  0
LTYPE
  5
6E
330
5
100
AcDbSymbolTableRecord
100
AcDbLinetypeTableRecord
  2
HIDDEN
 70
     0
  3
Hidden __ __ __ __ __ __ __ __ __ __ __ __ __ __
 72
    65
 73
     2
 40
1.905
 49
1.27
 74
     0
 49
-0.635
 74
     0
  0
LTYPE
  5
6F
330
5
100
AcDbSymbolTableRecord
100
AcDbLinetypeTableRecord
  2
PHANTOM
 70
     0
  3
Phantom ______  __  __  ______  __  __  ______
 72
    65
 73
     6
 40
12.7
 49
6.35
 74
     0
 49
-1.27
 74
     0
 49
1.27
 74
     0
 49
-1.27
 74
     0
 49
1.27
 74
     0
 49
-1.27
 74
     0
  0
LTYPE
  5
70
330
5
100
AcDbSymbolTableRecord
100
AcDbLinetypeTableRecord
  2
CENTER
 70
     0
  3
Center ____ _ ____ _ ____ _ ____ _ ____ _ ____
 72
    65
 73
     4
 40
10.16
 49
6.35
 74
     0
 49
-1.27
 74
     0
 49
1.27
 74
     0
 49
-1.27
 74
     0
  0
LTYPE
  5
71
330
5
100
AcDbSymbolTableRecord
100
AcDbLinetypeTableRecord
  2
CENTERX2
 70
     0
  3
Center (2x) ________  __  ________  __  _____
 72
    65
 73
     4
 40
20.32
 49
12.7
 74
     0
 49
-2.54
 74
     0
 49
2.54
 74
     0
 49
-2.54
 74
     0
  0
LTYPE
  5
72
330
5
100
AcDbSymbolTableRecord
100
AcDbLinetypeTableRecord
  2
DOT2
 70
     0
  3
Dot (.5x) ........................................
 72
    65
 73
     2
 40
0.635
 49
0.0
 74
     0
 49
-0.635
 74
     0
  0
ENDTAB
  0
TABLE
  2
LAYER
  5
2
330
0
100
AcDbSymbolTable
 70
    17
  0
LAYER
  5
10
330
2
100
AcDbSymbolTableRecord
100
AcDbLayerTableRecord
  2
0
 70
     0
 62
     7
  6
Continuous
370
    -3
390
F
  0
LAYER
  5
73
330
2
100
AcDbSymbolTableRecord
100
AcDbLayerTableRecord
  2
FORMAT
 70
     0
 62
     7
  6
Continuous
370
    -3
390
F
  0
LAYER
  5
74
330
2
100
AcDbSymbolTableRecord
100
AcDbLayerTableRecord
  2
YARDIMCI_GEOMETRI
 70
     0
 62
    -6
  6
Continuous
290
     0
370
    -3
390
F
  0
LAYER
  5
75
330
2
100
AcDbSymbolTableRecord
100
AcDbLayerTableRecord
  2
SAYFA_CERCEVESI
 70
     0
 62
     7
  6
Continuous
370
    25
390
F
  0
LAYER
  5
76
330
2
100
AcDbSymbolTableRecord
100
AcDbLayerTableRecord
  2
ANTET
 70
     0
 62
     7
  6
Continuous
370
    -3
390
F
  0
LAYER
  5
77
330
2
100
AcDbSymbolTableRecord
100
AcDbLayerTableRecord
  2
OLCU
 70
     0
 62
   150
  6
Continuous
370
    -3
390
F
  0
LAYER
  5
78
330
2
100
AcDbSymbolTableRecord
100
AcDbLayerTableRecord
  2
METIN
 70
     0
 62
    96
  6
Continuous
370
    -3
390
F
  0
LAYER
  5
79
330
2
100
AcDbSymbolTableRecord
100
AcDbLayerTableRecord
  2
BALON
 70
     0
 62
     5
  6
Continuous
370
    -3
390
F
  0
LAYER
  5
7A
330
2
100
AcDbSymbolTableRecord
100
AcDbLayerTableRecord
  2
VURGU
 70
     0
 62
     7
  6
Continuous
370
    -3
390
F
  0
LAYER
  5
7B
330
2
100
AcDbSymbolTableRecord
100
AcDbLayerTableRecord
  2
SILIK
 70
     0
 62
     7
  6
Continuous
370
    -3
390
F
  0
LAYER
  5
7C
330
2
100
AcDbSymbolTableRecord
100
AcDbLayerTableRecord
  2
MODEL
 70
     0
 62
     7
  6
Continuous
370
    -3
390
F
  0
LAYER
  5
7D
330
2
100
AcDbSymbolTableRecord
100
AcDbLayerTableRecord
  2
DETAYLANDıRMA
 70
     0
 62
   190
  6
Continuous
370
    -3
390
F
  0
LAYER
  5
7E
330
2
100
AcDbSymbolTableRecord
100
AcDbLayerTableRecord
  2
TOLERANS
 70
     0
 62
   230
  6
Continuous
370
    -3
390
F
  0
LAYER
  5
7F
330
2
100
AcDbSymbolTableRecord
100
AcDbLayerTableRecord
  2
MERKEZ_CIZGILERI
 70
     0
 62
    30
  6
Continuous
370
    -3
390
F
  0
LAYER
  5
80
330
2
100
AcDbSymbolTableRecord
100
AcDbLayerTableRecord
  2
KESIT-DETAY_CIZGILERI
 70
     0
 62
     7
  6
Continuous
370
    -3
390
F
  0
LAYER
  5
81
330
2
100
AcDbSymbolTableRecord
100
AcDbLayerTableRecord
  2
\U+041E\U+0421\U+0415\U+0412\U+042B\U+0415
 70
     0
 62
     7
  6
Continuous
370
    -3
390
F
  0
LAYER
  5
82
330
2
100
AcDbSymbolTableRecord
100
AcDbLayerTableRecord
  2
\U+0412\U+041E\U+0414\U+042F\U+041D\U+042B\U+0415_\U+0417\U+041D\U+0410\U+041A\U+0418
 70
     0
 62
    11
  6
Continuous
370
    -3
390
F
  0
ENDTAB
  0
TABLE
  2
STYLE
  5
3
330
0
100
AcDbSymbolTable
 70
     1
  0
STYLE
  5
11
330
3
100
AcDbSymbolTableRecord
100
AcDbTextStyleTableRecord
  2
Standard
 70
     0
 40
0.0
 41
1.0
 50
0.0
 71
     0
 42
3.5
  3
txt
  4

  0
ENDTAB
  0
TABLE
  2
VIEW
  5
6
330
0
100
AcDbSymbolTable
 70
     0
  0
ENDTAB
  0
TABLE
  2
UCS
  5
7
330
0
100
AcDbSymbolTable
 70
     0
  0
ENDTAB
  0
TABLE
  2
APPID
  5
9
330
0
100
AcDbSymbolTable
 70
     1
  0
APPID
  5
12
330
9
100
AcDbSymbolTableRecord
100
AcDbRegAppTableRecord
  2
ACAD
 70
     0
  0
ENDTAB
  0
TABLE
  2
DIMSTYLE
  5
A
330
0
100
AcDbSymbolTable
 70
     1
100
AcDbDimStyleTable
  0
DIMSTYLE
105
27
330
A
100
AcDbSymbolTableRecord
100
AcDbDimStyleTableRecord
  2
ISO-25
 70
     0
 41
2.5
 42
0.625
 43
3.75
 44
1.25
 73
     0
 74
     0
 77
     1
 78
     8
140
2.5
141
2.5
143
0.0393700787
147
0.625
171
     3
172
     1
178
     0
271
     2
272
     2
274
     3
278
    44
283
     0
284
     8
340
11
  0
ENDTAB
  0
TABLE
  2
BLOCK_RECORD
  5
1
330
0
100
AcDbSymbolTable
 70
     5
  0
BLOCK_RECORD
  5
1F
330
1
100
AcDbSymbolTableRecord
100
AcDbBlockTableRecord
  2
*Model_Space
340
22
  0
BLOCK_RECORD
  5
1B
330
1
100
AcDbSymbolTableRecord
100
AcDbBlockTableRecord
  2
*Paper_Space
340
1E
  0
BLOCK_RECORD
  5
23
330
1
100
AcDbSymbolTableRecord
100
AcDbBlockTableRecord
  2
*Paper_Space0
340
26
  0
BLOCK_RECORD
  5
8B
330
1
100
AcDbSymbolTableRecord
100
AcDbBlockTableRecord
  2
SW_CENTERMARKSYMBOL_0
340
0
102
{BLKREFS
331
96
102
}
  0
BLOCK_RECORD
  5
A9
330
1
100
AcDbSymbolTableRecord
100
AcDbBlockTableRecord
  2
SW_CENTERMARKSYMBOL_1
340
0
102
{BLKREFS
331
B4
102
}
  0
BLOCK_RECORD
  5
D9
330
1
100
AcDbSymbolTableRecord
100
AcDbBlockTableRecord
  2
SW_CENTERMARKSYMBOL_2
340
0
102
{BLKREFS
331
E4
102
}
  0
BLOCK_RECORD
  5
E5
330
1
100
AcDbSymbolTableRecord
100
AcDbBlockTableRecord
  2
SW_CENTERMARKSYMBOL_3
340
0
102
{BLKREFS
331
F0
102
}
  0
ENDTAB
  0
ENDSEC
  0
SECTION
  2
BLOCKS
  0
BLOCK
  5
20
330
1F
100
AcDbEntity
  8
0
100
AcDbBlockBegin
  2
*Model_Space
 70
     0
 10
0.0
 20
0.0
 30
0.0
  3
*Model_Space
  1

  0
ENDBLK
  5
21
330
1F
100
AcDbEntity
  8
0
100
AcDbBlockEnd
  0
BLOCK
  5
1C
330
1B
100
AcDbEntity
 67
     1
  8
0
100
AcDbBlockBegin
  2
*Paper_Space
 70
     0
 10
0.0
 20
0.0
 30
0.0
  3
*Paper_Space
  1

  0
ENDBLK
  5
1D
330
1B
100
AcDbEntity
 67
     1
  8
0
100
AcDbBlockEnd
  0
BLOCK
  5
24
330
23
100
AcDbEntity
  8
0
100
AcDbBlockBegin
  2
*Paper_Space0
 70
     0
 10
0.0
 20
0.0
 30
0.0
  3
*Paper_Space0
  1

  0
ENDBLK
  5
25
330
23
100
AcDbEntity
  8
0
100
AcDbBlockEnd
  0
BLOCK
  5
8C
330
8B
100
AcDbEntity
  8
0
100
AcDbBlockBegin
  2
SW_CENTERMARKSYMBOL_0
 70
     0
 10
0.0
 20
0.0
 30
0.0
  3
SW_CENTERMARKSYMBOL_0
  1

  0
LINE
  5
8E
330
8B
100
AcDbEntity
  8
FORMAT
 62
     0
100
AcDbLine
 10
0.0
 20
0.0
 30
0.0
 11
0.0
 21
2.5
 31
0.0
  0
LINE
  5
8F
330
8B
100
AcDbEntity
  8
FORMAT
 62
     0
100
AcDbLine
 10
0.0
 20
0.0
 30
0.0
 11
-2.5
 21
0.0
 31
0.0
  0
LINE
  5
90
330
8B
100
AcDbEntity
  8
FORMAT
 62
     0
100
AcDbLine
 10
0.0
 20
0.0
 30
0.0
 11
0.0
 21
-2.5
 31
0.0
  0
LINE
  5
91
330
8B
100
AcDbEntity
  8
FORMAT
 62
     0
100
AcDbLine
 10
0.0
 20
0.0
 30
0.0
 11
2.5
 21
0.0
 31
0.0
  0
LINE
  5
92
330
8B
100
AcDbEntity
  8
FORMAT
 62
     0
100
AcDbLine
 10
0.0
 20
5.0
 30
0.0
 11
0.0
 21
34.5
 31
0.0
  0
LINE
  5
93
330
8B
100
AcDbEntity
  8
FORMAT
 62
     0
100
AcDbLine
 10
-5.0
 20
0.0
 30
0.0
 11
-34.5
 21
0.0
 31
0.0
  0
LINE
  5
94
330
8B
100
AcDbEntity
  8
FORMAT
 62
     0
100
AcDbLine
 10
0.0
 20
-5.0
 30
0.0
 11
0.0
 21
-34.5
 31
0.0
  0
LINE
  5
95
330
8B
100
AcDbEntity
  8
FORMAT
 62
     0
100
AcDbLine
 10
5.0
 20
0.0
 30
0.0
 11
34.5
 21
0.0
 31
0.0
  0
ENDBLK
  5
8D
330
8B
100
AcDbEntity
  8
0
100
AcDbBlockEnd
  0
BLOCK
  5
AA
330
A9
100
AcDbEntity
  8
0
100
AcDbBlockBegin
  2
SW_CENTERMARKSYMBOL_1
 70
     0
 10
0.0
 20
0.0
 30
0.0
  3
SW_CENTERMARKSYMBOL_1
  1

  0
LINE
  5
AC
330
A9
100
AcDbEntity
  8
FORMAT
 62
     0
100
AcDbLine
 10
0.0
 20
0.0
 30
0.0
 11
0.0
 21
2.5
 31
0.0
  0
LINE
  5
AD
330
A9
100
AcDbEntity
  8
FORMAT
 62
     0
100
AcDbLine
 10
0.0
 20
0.0
 30
0.0
 11
-2.5
 21
0.0
 31
0.0
  0
LINE
  5
AE
330
A9
100
AcDbEntity
  8
FORMAT
 62
     0
100
AcDbLine
 10
0.0
 20
0.0
 30
0.0
 11
0.0
 21
-2.5
 31
0.0
  0
LINE
  5
AF
330
A9
100
AcDbEntity
  8
FORMAT
 62
     0
100
AcDbLine
 10
0.0
 20
0.0
 30
0.0
 11
2.5
 21
0.0
 31
0.0
  0
LINE
  5
B0
330
A9
100
AcDbEntity
  8
FORMAT
 62
     0
100
AcDbLine
 10
0.0
 20
5.0
 30
0.0
 11
0.0
 21
22.5
 31
0.0
  0
LINE
  5
B1
330
A9
100
AcDbEntity
  8
FORMAT
 62
     0
100
AcDbLine
 10
-5.0
 20
0.0
 30
0.0
 11
-22.5
 21
0.0
 31
0.0
  0
LINE
  5
B2
330
A9
100
AcDbEntity
  8
FORMAT
 62
     0
100
AcDbLine
 10
0.0
 20
-5.0
 30
0.0
 11
0.0
 21
-22.5
 31
0.0
  0
LINE
  5
B3
330
A9
100
AcDbEntity
  8
FORMAT
 62
     0
100
AcDbLine
 10
5.0
 20
0.0
 30
0.0
 11
22.5
 21
0.0
 31
0.0
  0
ENDBLK
  5
AB
330
A9
100
AcDbEntity
  8
0
100
AcDbBlockEnd
  0
BLOCK
  5
DA
330
D9
100
AcDbEntity
  8
0
100
AcDbBlockBegin
  2
SW_CENTERMARKSYMBOL_2
 70
     0
 10
0.0
 20
0.0
 30
0.0
  3
SW_CENTERMARKSYMBOL_2
  1

  0
LINE
  5
DC
330
D9
100
AcDbEntity
  8
FORMAT
 62
     0
100
AcDbLine
 10
0.0
 20
0.0
 30
0.0
 11
0.0
 21
2.5
 31
0.0
  0
LINE
  5
DD
330
D9
100
AcDbEntity
  8
FORMAT
 62
     0
100
AcDbLine
 10
0.0
 20
0.0
 30
0.0
 11
-2.5
 21
0.0
 31
0.0
  0
LINE
  5
DE
330
D9
100
AcDbEntity
  8
FORMAT
 62
     0
100
AcDbLine
 10
0.0
 20
0.0
 30
0.0
 11
0.0
 21
-2.5
 31
0.0
  0
LINE
  5
DF
330
D9
100
AcDbEntity
  8
FORMAT
 62
     0
100
AcDbLine
 10
0.0
 20
0.0
 30
0.0
 11
2.5
 21
0.0
 31
0.0
  0
LINE
  5
E0
330
D9
100
AcDbEntity
  8
FORMAT
 62
     0
100
AcDbLine
 10
0.0
 20
5.0
 30
0.0
 11
0.0
 21
9.5
 31
0.0
  0
LINE
  5
E1
330
D9
100
AcDbEntity
  8
FORMAT
 62
     0
100
AcDbLine
 10
-5.0
 20
0.0
 30
0.0
 11
-9.5
 21
0.0
 31
0.0
  0
LINE
  5
E2
330
D9
100
AcDbEntity
  8
FORMAT
 62
     0
100
AcDbLine
 10
0.0
 20
-5.0
 30
0.0
 11
0.0
 21
-9.5
 31
0.0
  0
LINE
  5
E3
330
D9
100
AcDbEntity
  8
FORMAT
 62
     0
100
AcDbLine
 10
5.0
 20
0.0
 30
0.0
 11
9.5
 21
0.0
 31
0.0
  0
ENDBLK
  5
DB
330
D9
100
AcDbEntity
  8
0
100
AcDbBlockEnd
  0
BLOCK
  5
E6
330
E5
100
AcDbEntity
  8
0
100
AcDbBlockBegin
  2
SW_CENTERMARKSYMBOL_3
 70
     0
 10
0.0
 20
0.0
 30
0.0
  3
SW_CENTERMARKSYMBOL_3
  1

  0
LINE
  5
E8
330
E5
100
AcDbEntity
  8
FORMAT
 62
     0
100
AcDbLine
 10
0.0
 20
0.0
 30
0.0
 11
0.0
 21
2.5
 31
0.0
  0
LINE
  5
E9
330
E5
100
AcDbEntity
  8
FORMAT
 62
     0
100
AcDbLine
 10
0.0
 20
0.0
 30
0.0
 11
-2.5
 21
0.0
 31
0.0
  0
LINE
  5
EA
330
E5
100
AcDbEntity
  8
FORMAT
 62
     0
100
AcDbLine
 10
0.0
 20
0.0
 30
0.0
 11
0.0
 21
-2.5
 31
0.0
  0
LINE
  5
EB
330
E5
100
AcDbEntity
  8
FORMAT
 62
     0
100
AcDbLine
 10
0.0
 20
0.0
 30
0.0
 11
2.5
 21
0.0
 31
0.0
  0
LINE
  5
EC
330
E5
100
AcDbEntity
  8
FORMAT
 62
     0
100
AcDbLine
 10
0.0
 20
5.0
 30
0.0
 11
0.0
 21
9.5
 31
0.0
  0
LINE
  5
ED
330
E5
100
AcDbEntity
  8
FORMAT
 62
     0
100
AcDbLine
 10
-5.0
 20
0.0
 30
0.0
 11
-9.5
 21
0.0
 31
0.0
  0
LINE
  5
EE
330
E5
100
AcDbEntity
  8
FORMAT
 62
     0
100
AcDbLine
 10
0.0
 20
-5.0
 30
0.0
 11
0.0
 21
-9.5
 31
0.0
  0
LINE
  5
EF
330
E5
100
AcDbEntity
  8
FORMAT
 62
     0
100
AcDbLine
 10
5.0
 20
0.0
 30
0.0
 11
9.5
 21
0.0
 31
0.0
  0
ENDBLK
  5
E7
330
E5
100
AcDbEntity
  8
0
100
AcDbBlockEnd
  0
ENDSEC
  0
SECTION
  2
ENTITIES
  0
LINE
  5
83
330
1F
100
AcDbEntity
  8
0
  6
Continuous
 62
     7
370
    25
100
AcDbLine
 10
126.1708209135
 20
131.0316096732
 30
0.0
 11
126.1708209135
 21
163.8012392902
 31
0.0
  0
LINE
  5
84
330
1F
100
AcDbEntity
  8
0
  6
Continuous
 62
     7
370
    25
100
AcDbLine
 10
112.1708209135
 20
163.8012392902
 30
0.0
 11
112.1708209135
 21
131.029140914
 31
0.0
  0
LINE
  5
85
330
1F
100
AcDbEntity
  8
0
  6
Continuous
 62
     7
370
    25
100
AcDbLine
 10
144.1779969858
 20
79.8012392902
 30
0.0
 11
208.1708209135
 21
79.8012392902
 31
0.0
  0
LINE
  5
86
330
1F
100
AcDbEntity
  8
0
  6
Continuous
 62
     7
370
    25
100
AcDbLine
 10
208.1708209135
 20
119.8012392902
 30
0.0
 11
144.1834322132
 21
119.8012392902
 31
0.0
  0
CIRCLE
  5
87
330
1F
100
AcDbEntity
  8
0
  6
Continuous
 62
     7
370
    25
100
AcDbCircle
 10
119.1708209135
 20
99.8012392902
 30
0.0
 40
25.00000000000003
  0
CIRCLE
  5
88
330
1F
100
AcDbEntity
  8
0
  6
Continuous
 62
     7
370
    25
100
AcDbCircle
 10
119.1708209135
 20
99.8012392902
 30
0.0
 40
32.0
  0
LINE
  5
89
330
1F
100
AcDbEntity
  8
0
  6
Continuous
 62
     7
370
    25
100
AcDbLine
 10
126.1708209135
 20
163.8012392902
 30
0.0
 11
112.1708209135
 21
163.8012392902
 31
0.0
  0
LINE
  5
8A
330
1F
100
AcDbEntity
  8
0
  6
Continuous
 62
     7
370
    25
100
AcDbLine
 10
208.1708209135
 20
119.8012392902
 30
0.0
 11
208.1708209135
 21
79.8012392902
 31
0.0
  0
INSERT
  5
96
330
1F
100
AcDbEntity
  8
FORMAT
 62
     7
100
AcDbBlockReference
  2
SW_CENTERMARKSYMBOL_0
 10
119.1708209135
 20
99.8012392902
 30
0.0
  0
LINE
  5
97
330
1F
100
AcDbEntity
  8
0
  6
Continuous
 62
     7
370
    25
100
AcDbLine
 10
-99.9141684658
 20
131.8012392902
 30
0.0
 11
-100.9302645505
 21
131.8012392902
 31
0.0
  0
LINE
  5
98
330
1F
100
AcDbEntity
  8
0
  6
Continuous
 62
     7
370
    25
100
AcDbLine
 10
22.0858315342
 20
131.8012392902
 30
0.0
 11
-85.9302645505
 21
131.8012392902
 31
0.0
  0
LINE
  5
99
330
1F
100
AcDbEntity
  8
0
  6
Continuous
 62
     7
370
    25
100
AcDbLine
 10
37.0697354495
 20
131.8012392902
 30
0.0
 11
36.0697354495
 21
131.8012392902
 31
0.0
  0
LINE
  5
9A
330
1F
100
AcDbEntity
  8
0
  6
Continuous
 62
     7
370
    25
100
AcDbLine
 10
-100.9302645505
 20
67.8012392902
 30
0.0
 11
37.0697354495
 21
67.8012392902
 31
0.0
  0
LINE
  5
9B
330
1F
100
AcDbEntity
  8
0
  6
Continuous
 62
     7
370
    25
100
AcDbLine
 10
36.0697354495
 20
131.8012392902
 30
0.0
 11
36.0697354495
 21
163.8012392902
 31
0.0
  0
LINE
  5
9C
330
1F
100
AcDbEntity
  8
0
  6
Continuous
 62
     7
370
    25
100
AcDbLine
 10
22.0697354495
 20
163.8012392902
 30
0.0
 11
22.0697354495
 21
131.7977365171
 31
0.0
  0
LINE
  5
9D
330
1F
100
AcDbEntity
  8
0
  6
Continuous
 62
     7
370
    25
100
AcDbLine
 10
-85.9302645505
 20
131.8012392902
 30
0.0
 11
-85.9302645505
 21
163.8012392902
 31
0.0
  0
LINE
  5
9E
330
1F
100
AcDbEntity
  8
0
  6
Continuous
 62
     7
370
    25
100
AcDbLine
 10
-99.9302645505
 20
163.8012392902
 30
0.0
 11
-99.9302645505
 21
131.7977365171
 31
0.0
  0
CIRCLE
  5
9F
330
1F
100
AcDbEntity
  8
0
  6
Continuous
 62
     7
370
    25
100
AcDbCircle
 10
-31.9302645505
 20
99.8012392902
 30
0.0
 40
16.3
  0
CIRCLE
  5
A0
330
1F
100
AcDbEntity
  8
0
  6
Continuous
 62
     7
370
    25
100
AcDbCircle
 10
-31.9302645505
 20
99.8012392902
 30
0.0
 40
20.00000000000001
  0
LINE
  5
A1
330
1F
100
AcDbEntity
  8
0
  6
Continuous
 62
     7
370
    25
100
AcDbLine
 10
-100.9302645505
 20
99.8012392902
 30
0.0
 11
-100.9302645505
 21
131.8012392902
 31
0.0
  0
LINE
  5
A2
330
1F
100
AcDbEntity
  8
0
  6
Continuous
 62
     7
370
    25
100
AcDbLine
 10
-100.9302645505
 20
67.8012392902
 30
0.0
 11
-100.9302645505
 21
99.8012392902
 31
0.0
  0
LINE
  5
A3
330
1F
100
AcDbEntity
  8
0
  6
Continuous
 62
     7
370
    25
100
AcDbLine
 10
37.0697354495
 20
99.8012392902
 30
0.0
 11
37.0697354495
 21
131.8012392902
 31
0.0
  0
LINE
  5
A4
330
1F
100
AcDbEntity
  8
0
  6
Continuous
 62
     7
370
    25
100
AcDbLine
 10
37.0697354495
 20
67.8012392902
 30
0.0
 11
37.0697354495
 21
99.8012392902
 31
0.0
  0
SPLINE
  5
A5
330
1F
100
AcDbEntity
  8
0
  6
Continuous
 62
     7
370
    25
100
AcDbSpline
210
0.0
220
0.0
230
1.0
 70
     8
 71
     3
 72
    26
 73
    22
 74
     0
 42
0.00000001
 43
0.00000001
 40
0.0
 40
0.0
 40
0.0
 40
0.0
 40
0.0520675274430494
 40
0.1056666719673211
 40
0.1577282179645918
 40
0.2112595043940476
 40
0.2640685627030968
 40
0.3183745648540824
 40
0.3717266027121223
 40
0.4266721790762277
 40
0.4791818583252264
 40
0.533271500296321
 40
0.5848607558318414
 40
0.637925168815717
 40
0.6899504185222745
 40
0.7434222076302455
 40
0.7965498093011418
 40
0.851209326817259
 40
0.9044123528418612
 40
0.9592192521975946
 40
1.0
 40
1.0
 40
1.0
 40
1.0
 10
-85.93026455053655
 20
131.8012392901928
 30
0.0
 10
-85.94847668921172
 20
131.797230207743
 30
0.0
 10
-85.9854366943765
 20
131.7890941117746
 30
0.0
 10
-86.2823851458909
 20
131.7253327764387
 30
0.0
 10
-86.75097561588984
 20
131.630279058944
 30
0.0
 10
-87.38923892116742
 20
131.5114163448287
 30
0.0
 10
-88.18904228301153
 20
131.3802550755772
 30
0.0
 10
-89.12173886489465
 20
131.252440923409
 30
0.0
 10
-90.17699253217927
 20
131.1410041753467
 30
0.0
 10
-91.3022126289686
 20
131.0615112706421
 30
0.0
 10
-92.48040531786921
 20
131.0220519159228
 30
0.0
 10
-93.64792673481
 20
131.0272421637551
 30
0.0
 10
-94.7977865014608
 20
131.0754066887266
 30
0.0
 10
-95.88068640747954
 20
131.1594863179484
 30
0.0
 10
-96.89340745086078
 20
131.2719211628982
 30
0.0
 10
-97.7973770743342
 20
131.3996068280811
 30
0.0
 10
-98.57928429744231
 20
131.5305578712579
 30
0.0
 10
-99.20272406439321
 20
131.648603534427
 30
0.0
 10
-99.64711383004624
 20
131.739866826468
 30
0.0
 10
-99.89816994672395
 20
131.7941892376429
 30
0.0
 10
-99.90938413454914
 20
131.7966706736046
 30
0.0
 10
-99.91416846577921
 20
131.7977293335585
 30
0.0
  0
SPLINE
  5
A6
330
1F
100
AcDbEntity
  8
0
  6
Continuous
 62
     7
370
    25
100
AcDbSpline
210
0.0
220
0.0
230
1.0
 70
     8
 71
     3
 72
    26
 73
    22
 74
     0
 42
0.00000001
 43
0.00000001
 40
0.0
 40
0.0
 40
0.0
 40
0.0
 40
0.0520675274430494
 40
0.1056666719673209
 40
0.1577282179645916
 40
0.2112595043940473
 40
0.2640685627030969
 40
0.3183745648540822
 40
0.3717266027121225
 40
0.4266721790762276
 40
0.4791818583252259
 40
0.5332715002963205
 40
0.5848607558318405
 40
0.6379251688157161
 40
0.6899504185222729
 40
0.743422207630244
 40
0.7965498093011409
 40
0.8512093268172587
 40
0.9044123528418601
 40
0.9592192521975935
 40
1.0
 40
1.0
 40
1.0
 40
1.0
 10
36.06973544946345
 20
131.8012392901928
 30
0.0
 10
36.05152331078828
 20
131.797230207743
 30
0.0
 10
36.0145633056235
 20
131.7890941117746
 30
0.0
 10
35.71761485410913
 20
131.7253327764387
 30
0.0
 10
35.24902438411016
 20
131.630279058944
 30
0.0
 10
34.61076107883262
 20
131.5114163448286
 30
0.0
 10
33.81095771698845
 20
131.3802550755772
 30
0.0
 10
32.87826113510534
 20
131.252440923409
 30
0.0
 10
31.82300746782072
 20
131.1410041753466
 30
0.0
 10
30.69778737103139
 20
131.0615112706421
 30
0.0
 10
29.51959468213078
 20
131.0220519159228
 30
0.0
 10
28.35207326519
 20
131.0272421637551
 30
0.0
 10
27.20221349853917
 20
131.0754066887267
 30
0.0
 10
26.11931359252047
 20
131.1594863179484
 30
0.0
 10
25.1065925491392
 20
131.2719211628981
 30
0.0
 10
24.20262292566584
 20
131.3996068280811
 30
0.0
 10
23.42071570255769
 20
131.5305578712579
 30
0.0
 10
22.79727593560681
 20
131.648603534427
 30
0.0
 10
22.35288616995373
 20
131.739866826468
 30
0.0
 10
22.10183005327608
 20
131.7941892376429
 30
0.0
 10
22.09061586545084
 20
131.7966706736046
 30
0.0
 10
22.08583153422078
 20
131.7977293335585
 30
0.0
  0
LINE
  5
A7
330
1F
100
AcDbEntity
  8
0
  6
Continuous
 62
     7
370
    25
100
AcDbLine
 10
36.0697354495
 20
163.8012392902
 30
0.0
 11
22.0697354495
 21
163.8012392902
 31
0.0
  0
LINE
  5
A8
330
1F
100
AcDbEntity
  8
0
  6
Continuous
 62
     7
370
    25
100
AcDbLine
 10
-85.9302645505
 20
163.8012392902
 30
0.0
 11
-99.9302645505
 21
163.8012392902
 31
0.0
  0
INSERT
  5
B4
330
1F
100
AcDbEntity
  8
FORMAT
 62
     7
100
AcDbBlockReference
  2
SW_CENTERMARKSYMBOL_1
 10
-31.9302645505
 20
99.8012392902
 30
0.0
  0
LINE
  5
B5
330
1F
100
AcDbEntity
  8
0
  6
Continuous
 62
     7
370
    25
100
AcDbLine
 10
151.1708209135
 20
278.4445848443
 30
0.0
 11
151.1708209135
 21
327.4445848443
 31
0.0
  0
LINE
  5
B6
330
1F
100
AcDbEntity
  8
0
  6
Continuous
 62
     7
370
    25
100
AcDbLine
 10
151.1708209135
 20
189.4445848443
 30
0.0
 11
151.1708209135
 21
238.4952344914
 31
0.0
  0
LINE
  5
B7
330
1F
100
AcDbEntity
  8
0
  6
Continuous
 62
     7
370
    25
100
AcDbLine
 10
87.1708209135
 20
327.4445848443
 30
0.0
 11
87.1708209135
 21
189.4445848443
 31
0.0
  0
LINE
  5
B8
330
1F
100
AcDbEntity
  8
0
  6
Continuous
 62
     7
370
    25
100
AcDbLine
 10
151.1392052857
 20
238.4445848443
 30
0.0
 11
208.1708209135
 21
238.4445848443
 31
0.0
  0
LINE
  5
B9
330
1F
100
AcDbEntity
  8
0
  6
Continuous
 62
     7
370
    25
100
AcDbLine
 10
208.1708209135
 20
278.4445848443
 30
0.0
 11
151.1708209135
 21
278.4445848443
 31
0.0
  0
SPLINE
  5
BA
330
1F
100
AcDbEntity
  8
0
  6
Continuous
 62
     7
370
    25
100
AcDbSpline
210
0.0
220
0.0
230
1.0
 70
     8
 71
     3
 72
    34
 73
    30
 74
     0
 42
0.00000001
 43
0.00000001
 40
0.0
 40
0.0
 40
0.0
 40
0.0
 40
0.0464109436440805
 40
0.0943065376875961
 40
0.1406870382981193
 40
0.1882344590244153
 40
0.2384133025989084
 40
0.2897263526910651
 40
0.3181020976638554
 40
0.3464754101129681
 40
0.3757723075008265
 40
0.4050627341931747
 40
0.4470877567369301
 40
0.4902729376090786
 40
0.5323302473171289
 40
0.5756802422717504
 40
0.6170010132486686
 40
0.659184548755417
 40
0.7082464067513743
 40
0.7583566250764898
 40
0.7868211086635346
 40
0.8152834497426679
 40
0.8446661275143976
 40
0.8740447264086499
 40
0.9008482505246885
 40
0.9276487830065889
 40
0.9555260230486697
 40
0.9834011719534341
 40
1.0
 40
1.0
 40
1.0
 40
1.0
 10
151.1708209134615
 20
278.4445848442692
 30
0.0
 10
151.1433821909489
 20
278.4008307361362
 30
0.0
 10
151.0876270022895
 20
278.3119228595961
 30
0.0
 10
150.6492862236145
 20
277.6035334990625
 30
0.0
 10
149.9894822278898
 20
276.5039804686452
 30
0.0
 10
149.1270815659989
 20
274.9988109412686
 30
0.0
 10
148.1059566591214
 20
273.0853122508942
 30
0.0
 10
147.1679583380937
 20
271.1282903789548
 30
0.0
 10
146.4091556058205
 20
269.331502692883
 30
0.0
 10
145.8347600629982
 20
267.8089418838169
 30
0.0
 10
145.3050081352235
 20
266.1809945335579
 30
0.0
 10
144.7772029500414
 20
264.2024898503021
 30
0.0
 10
144.3319455532515
 20
261.8328747213915
 30
0.0
 10
144.1079798612452
 20
259.0982381004203
 30
0.0
 10
144.1912027624579
 20
256.3151071416433
 30
0.0
 10
144.5657342263112
 20
253.6369978986526
 30
0.0
 10
145.1762526394101
 20
251.0890454887452
 30
0.0
 10
145.9868552106941
 20
248.6023945169904
 30
0.0
 10
146.9702999370153
 20
246.1824973541334
 30
0.0
 10
147.8919404403489
 20
244.2465629782215
 30
0.0
 10
148.6365148826662
 20
242.8075720297408
 30
0.0
 10
149.2062498811727
 20
241.7607341278403
 30
0.0
 10
149.7343353970508
 20
240.8291844118386
 30
0.0
 10
150.1913381208479
 20
240.0496687417067
 30
0.0
 10
150.5626860518072
 20
239.4310516218368
 30
0.0
 10
150.8544553230216
 20
238.9540252526824
 30
0.0
 10
151.0524044571037
 20
238.6340680612198
 30
0.0
 10
151.1726867681428
 20
238.4415937184994
 30
0.0
 10
151.1482993336879
 20
238.4806555971316
 30
0.0
 10
151.1391973181102
 20
238.4952344913758
 30
0.0
  0
LINE
  5
BB
330
1F
100
AcDbEntity
  8
0
  6
Continuous
 62
     7
370
    25
100
AcDbLine
 10
87.1708209135
 20
327.4445848443
 30
0.0
 11
151.1708209135
 21
327.4445848443
 31
0.0
  0
LINE
  5
BC
330
1F
100
AcDbEntity
  8
0
  6
Continuous
 62
     7
370
    25
100
AcDbLine
 10
87.1708209135
 20
189.4445848443
 30
0.0
 11
151.1708209135
 21
189.4445848443
 31
0.0
  0
LINE
  5
BD
330
1F
100
AcDbEntity
  8
0
  6
Continuous
 62
     7
370
    25
100
AcDbLine
 10
208.1708209135
 20
278.4445848443
 30
0.0
 11
208.1708209135
 21
238.4445848443
 31
0.0
  0
LINE
  5
BE
330
1F
100
AcDbEntity
  8
0
  6
Continuous
 62
     7
370
    25
100
AcDbLine
 10
245.8035363816
 20
67.8012392902
 30
0.0
 11
383.8035363816
 21
67.8012392902
 31
0.0
  0
LINE
  5
BF
330
1F
100
AcDbEntity
  8
0
  6
Continuous
 62
     7
370
    25
100
AcDbLine
 10
246.8035363816
 20
131.8012392902
 30
0.0
 11
245.8035363816
 21
131.8012392902
 31
0.0
  0
LINE
  5
C0
330
1F
100
AcDbEntity
  8
0
  6
Continuous
 62
     7
370
    25
100
AcDbLine
 10
368.8035363816
 20
131.8012392902
 30
0.0
 11
260.7874402969
 21
131.8012392902
 31
0.0
  0
LINE
  5
C1
330
1F
100
AcDbEntity
  8
0
  6
Continuous
 62
     7
370
    25
100
AcDbLine
 10
383.8035363816
 20
131.8012392902
 30
0.0
 11
382.7874402969
 21
131.8012392902
 31
0.0
  0
LINE
  5
C2
330
1F
100
AcDbEntity
  8
0
  6
Continuous
 62
     7
370
    25
100
AcDbLine
 10
260.8035363816
 20
131.7977365171
 30
0.0
 11
260.8035363816
 21
163.8012392902
 31
0.0
  0
LINE
  5
C3
330
1F
100
AcDbEntity
  8
0
  6
Continuous
 62
     7
370
    25
100
AcDbLine
 10
246.8035363816
 20
163.8012392902
 30
0.0
 11
246.8035363816
 21
131.8012392902
 31
0.0
  0
LINE
  5
C4
330
1F
100
AcDbEntity
  8
0
  6
Continuous
 62
     7
370
    25
100
AcDbLine
 10
382.8035363816
 20
131.7977365171
 30
0.0
 11
382.8035363816
 21
163.8012392902
 31
0.0
  0
LINE
  5
C5
330
1F
100
AcDbEntity
  8
0
  6
Continuous
 62
     7
370
    25
100
AcDbLine
 10
368.8035363816
 20
163.8012392902
 30
0.0
 11
368.8035363816
 21
131.8012392902
 31
0.0
  0
LINE
  5
C6
330
1F
100
AcDbEntity
  8
0
  6
Continuous
 62
     7
370
    25
100
AcDbLine
 10
383.8035363816
 20
131.8012392902
 30
0.0
 11
383.8035363816
 21
67.8012392902
 31
0.0
  0
LINE
  5
C7
330
1F
100
AcDbEntity
  8
0
  6
Continuous
 62
     7
370
    25
100
AcDbLine
 10
245.8035363816
 20
131.8012392902
 30
0.0
 11
245.8035363816
 21
67.8012392902
 31
0.0
  0
SPLINE
  5
C8
330
1F
100
AcDbEntity
  8
0
  6
Continuous
 62
     7
370
    25
100
AcDbSpline
210
0.0
220
0.0
230
1.0
 70
     8
 71
     3
 72
    26
 73
    22
 74
     0
 42
0.00000001
 43
0.00000001
 40
0.0
 40
0.0
 40
0.0
 40
0.0
 40
0.0113732922160004
 40
0.0650789902192433
 40
0.1167020938314735
 40
0.1697828133243309
 40
0.2221555144247244
 40
0.2759927212460639
 40
0.3292984900853667
 40
0.3841651054429232
 40
0.4371349587923231
 40
0.4917087728290934
 40
0.5435449238156137
 40
0.5968969741677908
 40
0.6485896297351886
 40
0.7017244219384318
 40
0.7544616878284888
 40
0.8086892286321011
 40
0.8620547758500512
 40
0.9170089318930106
 40
0.9999999999999999
 40
0.9999999999999999
 40
0.9999999999999999
 40
0.9999999999999999
 10
382.7874402968825
 20
131.7977293335585
 30
0.0
 10
382.7923912646109
 20
131.798808821662
 30
0.0
 10
382.820721142561
 20
131.8049857486586
 30
0.0
 10
382.6816826815099
 20
131.7745256702684
 30
0.0
 10
382.3649319038207
 20
131.7073637749779
 30
0.0
 10
381.8585496062955
 20
131.6061266746079
 30
0.0
 10
381.1842900396369
 20
131.4835971368671
 30
0.0
 10
380.3595455722414
 20
131.3526906427928
 30
0.0
 10
379.3929108234994
 20
131.2263753325867
 30
0.0
 10
378.3267743353265
 20
131.1214621165182
 30
0.0
 10
377.1778977844176
 20
131.0492079076573
 30
0.0
 10
376.0091776597152
 20
131.0194841480185
 30
0.0
 10
374.8325186451424
 20
131.0342218747199
 30
0.0
 10
373.7042724314492
 20
131.0902157518495
 30
0.0
 10
372.6268716605873
 20
131.1818009906761
 30
0.0
 10
371.6411333210893
 20
131.2978689070677
 30
0.0
 10
370.7562593167164
 20
131.4280613716265
 30
0.0
 10
370.0094671416721
 20
131.55702333076
 30
0.0
 10
369.4216943667606
 20
131.6704017389651
 30
0.0
 10
368.9242232256476
 20
131.7743761225086
 30
0.0
 10
368.848870400729
 20
131.7911485850575
 30
0.0
 10
368.8035363816399
 20
131.8012392901928
 30
0.0
  0
SPLINE
  5
C9
330
1F
100
AcDbEntity
  8
0
  6
Continuous
 62
     7
370
    25
100
AcDbSpline
210
0.0
220
0.0
230
1.0
 70
     8
 71
     3
 72
    26
 73
    22
 74
     0
 42
0.00000001
 43
0.00000001
 40
0.0
 40
0.0
 40
0.0
 40
0.0
 40
0.0113732922159994
 40
0.0650789902192425
 40
0.1167020938314729
 40
0.16978281332433
 40
0.2221555144247238
 40
0.2759927212460631
 40
0.3292984900853665
 40
0.3841651054429222
 40
0.4371349587923224
 40
0.491708772829093
 40
0.5435449238156133
 40
0.5968969741677904
 40
0.6485896297351893
 40
0.7017244219384314
 40
0.7544616878284881
 40
0.8086892286321007
 40
0.8620547758500513
 40
0.9170089318930107
 40
0.9999999999999999
 40
0.9999999999999999
 40
0.9999999999999999
 40
0.9999999999999999
 10
260.7874402968825
 20
131.7977293335586
 30
0.0
 10
260.7923912646109
 20
131.798808821662
 30
0.0
 10
260.820721142561
 20
131.8049857486586
 30
0.0
 10
260.6816826815099
 20
131.7745256702684
 30
0.0
 10
260.3649319038207
 20
131.7073637749779
 30
0.0
 10
259.8585496062955
 20
131.6061266746079
 30
0.0
 10
259.1842900396369
 20
131.4835971368671
 30
0.0
 10
258.3595455722414
 20
131.3526906427928
 30
0.0
 10
257.3929108234994
 20
131.2263753325868
 30
0.0
 10
256.3267743353265
 20
131.1214621165182
 30
0.0
 10
255.1778977844176
 20
131.0492079076573
 30
0.0
 10
254.0091776597152
 20
131.0194841480185
 30
0.0
 10
252.8325186451424
 20
131.0342218747199
 30
0.0
 10
251.7042724314492
 20
131.0902157518495
 30
0.0
 10
250.6268716605873
 20
131.1818009906762
 30
0.0
 10
249.6411333210893
 20
131.2978689070677
 30
0.0
 10
248.7562593167164
 20
131.4280613716266
 30
0.0
 10
248.0094671416722
 20
131.55702333076
 30
0.0
 10
247.4216943667605
 20
131.6704017389652
 30
0.0
 10
246.9242232256476
 20
131.7743761225086
 30
0.0
 10
246.848870400729
 20
131.7911485850575
 30
0.0
 10
246.8035363816398
 20
131.8012392901928
 30
0.0
  0
LINE
  5
CA
330
1F
100
AcDbEntity
  8
0
  6
Continuous
 62
     7
370
    25
100
AcDbLine
 10
260.8035363816
 20
163.8012392902
 30
0.0
 11
246.8035363816
 21
163.8012392902
 31
0.0
  0
LINE
  5
CB
330
1F
100
AcDbEntity
  8
0
  6
Continuous
 62
     7
370
    25
100
AcDbLine
 10
382.8035363816
 20
163.8012392902
 30
0.0
 11
368.8035363816
 21
163.8012392902
 31
0.0
  0
LINE
  5
CC
330
1F
100
AcDbEntity
  8
0
  6
Continuous
 62
     7
370
    25
100
AcDbLine
 10
87.1708209135
 20
43.2570694633
 30
0.0
 11
87.1708209135
 21
-94.7429305367
 31
0.0
  0
LINE
  5
CD
330
1F
100
AcDbEntity
  8
0
  6
Continuous
 62
     7
370
    25
100
AcDbLine
 10
151.1708209135
 20
-5.7935801839
 30
0.0
 11
151.1708209135
 21
43.2570694633
 31
0.0
  0
LINE
  5
CE
330
1F
100
AcDbEntity
  8
0
  6
Continuous
 62
     7
370
    25
100
AcDbLine
 10
151.1708209135
 20
-94.7429305367
 30
0.0
 11
151.1708209135
 21
-45.7429305367
 31
0.0
  0
LINE
  5
CF
330
1F
100
AcDbEntity
  8
0
  6
Continuous
 62
     7
370
    25
100
AcDbLine
 10
151.1708209135
 20
-45.7429305367
 30
0.0
 11
208.1708209135
 21
-45.7429305367
 31
0.0
  0
LINE
  5
D0
330
1F
100
AcDbEntity
  8
0
  6
Continuous
 62
     7
370
    25
100
AcDbLine
 10
208.1708209135
 20
-5.7429305367
 30
0.0
 11
151.1708209135
 21
-5.7429305367
 31
0.0
  0
CIRCLE
  5
D1
330
1F
100
AcDbEntity
  8
0
  6
Continuous
 62
     7
370
    25
100
AcDbCircle
 10
119.1708209135
 20
35.2570694633
 30
0.0
 40
7.000000000000021
  0
CIRCLE
  5
D2
330
1F
100
AcDbEntity
  8
0
  6
Continuous
 62
     7
370
    25
100
AcDbCircle
 10
119.1708209135
 20
35.2570694633
 30
0.0
 40
5.000000000000007
  0
CIRCLE
  5
D3
330
1F
100
AcDbEntity
  8
0
  6
Continuous
 62
     7
370
    25
100
AcDbCircle
 10
119.1708209135
 20
-86.7429305367
 30
0.0
 40
5.0
  0
CIRCLE
  5
D4
330
1F
100
AcDbEntity
  8
0
  6
Continuous
 62
     7
370
    25
100
AcDbCircle
 10
119.1708209135
 20
-86.7429305367
 30
0.0
 40
7.0
  0
LWPOLYLINE
  5
D5
330
1F
100
AcDbEntity
  8
0
  6
Continuous
 62
     7
370
    25
100
AcDbPolyline
 90
       29
 70
   128
 43
0.0
 10
151.1391973181
 20
-5.7935801839
 10
151.1152963779
 20
-5.8318905665
 10
150.797153599
 20
-6.3464123147
 10
150.2695606328
 20
-7.2191185066
 10
149.5415856624
 20
-8.4691541275
 10
148.6054201328
 20
-10.1738704751
 10
147.5584293813
 20
-12.257519363
 10
146.9660598038
 20
-13.5537835211
 10
146.3826245854
 20
-14.9502358279
 10
145.8176250487
 20
-16.4664996164
 10
145.2993525069
 20
-18.0813273604
 10
144.6543011823
 20
-20.7023188068
 10
144.2476823707
 20
-23.54089045
 10
144.158930095
 20
-26.3797982368
 10
144.4019927904
 20
-29.2942731397
 10
144.8759385741
 20
-31.8053618929
 10
145.552927905
 20
-34.229129292
 10
146.4636946725
 20
-36.7384277073
 10
147.4716069497
 20
-39.0446029982
 10
148.0638367465
 20
-40.2621028248
 10
148.6443721031
 20
-41.3855076814
 10
149.2063244464
 20
-42.4202046689
 10
149.7261369218
 20
-43.33916128
 10
150.1675437998
 20
-44.0949557572
 10
150.5436423456
 20
-44.7232868193
 10
150.846643843
 20
-45.2200391071
 10
151.0557934905
 20
-45.5583658395
 10
151.1708209135
 20
-45.7429305367
 10
151.1708209135
 20
-45.7429305367
  0
LINE
  5
D6
330
1F
100
AcDbEntity
  8
0
  6
Continuous
 62
     7
370
    25
100
AcDbLine
 10
151.1708209135
 20
-94.7429305367
 30
0.0
 11
87.1708209135
 21
-94.7429305367
 31
0.0
  0
LINE
  5
D7
330
1F
100
AcDbEntity
  8
0
  6
Continuous
 62
     7
370
    25
100
AcDbLine
 10
151.1708209135
 20
43.2570694633
 30
0.0
 11
87.1708209135
 21
43.2570694633
 31
0.0
  0
LINE
  5
D8
330
1F
100
AcDbEntity
  8
0
  6
Continuous
 62
     7
370
    25
100
AcDbLine
 10
208.1708209135
 20
-5.7429305367
 30
0.0
 11
208.1708209135
 21
-45.7429305367
 31
0.0
  0
INSERT
  5
E4
330
1F
100
AcDbEntity
  8
FORMAT
 62
     7
100
AcDbBlockReference
  2
SW_CENTERMARKSYMBOL_2
 10
119.1708209135
 20
-86.7429305367
 30
0.0
  0
INSERT
  5
F0
330
1F
100
AcDbEntity
  8
FORMAT
 62
     7
100
AcDbBlockReference
  2
SW_CENTERMARKSYMBOL_3
 10
119.1708209135
 20
35.2570694633
 30
0.0
  0
LINE
  5
F1
330
1F
100
AcDbEntity
  8
0
  6
Continuous
 62
     7
370
    25
100
AcDbLine
 10
383.1086682018
 20
-50.2984277822
 30
0.0
 11
370.3238268242
 21
-42.9178959539
 31
0.0
  0
LINE
  5
F2
330
1F
100
AcDbEntity
  8
0
  6
Continuous
 62
     7
370
    25
100
AcDbLine
 10
330.3205758654
 20
-19.8245107319
 30
0.0
 11
285.5279323981
 21
6.0337319336
 31
0.0
  0
LINE
  5
F3
330
1F
100
AcDbEntity
  8
0
  6
Continuous
 62
     7
370
    25
100
AcDbLine
 10
253.5305329537
 20
-49.3933952588
 30
0.0
 11
351.1112687575
 21
-105.7255549745
 31
0.0
  0
LINE
  5
F4
330
1F
100
AcDbEntity
  8
0
  6
Continuous
 62
     7
370
    25
100
AcDbLine
 10
348.6155242159
 20
-55.4498322999
 30
0.0
 11
391.2512914298
 21
-30.836727792
 31
0.0
  0
LINE
  5
F5
330
1F
100
AcDbEntity
  8
0
  6
Continuous
 62
     7
370
    25
100
AcDbLine
 10
371.252916777
 20
3.8052267033
 30
0.0
 11
328.6170346526
 21
-20.8079441411
 31
0.0
  0
LINE
  5
F6
330
1F
100
AcDbEntity
  8
0
  6
Continuous
 62
     7
370
    25
100
AcDbLine
 10
282.1860869254
 20
7.2860593589
 30
0.0
 11
282.1860869254
 21
27.3131478508
 31
0.0
  0
LINE
  5
F7
330
1F
100
AcDbEntity
  8
0
  6
Continuous
 62
     7
370
    25
100
AcDbLine
 10
268.1860869254
 20
27.3131478508
 30
0.0
 11
268.1860869254
 21
3.628018637
 31
0.0
  0
SPLINE
  5
F8
330
1F
100
AcDbEntity
  8
0
  6
Continuous
 62
     7
370
    25
100
AcDbSpline
210
0.0
220
0.0
230
1.0
 70
     8
 71
     3
 72
    25
 73
    21
 74
     0
 42
0.00000001
 43
0.00000001
 40
0.0
 40
0.0
 40
0.0
 40
0.0
 40
0.0618292950853209
 40
0.1256364617767261
 40
0.1874252002355851
 40
0.2507685256628202
 40
0.317617468666443
 40
0.3859774171347706
 40
0.4236452087295199
 40
0.4615793699116214
 40
0.500424283376194
 40
0.5396305123347691
 40
0.5956168232305727
 40
0.6531487129489492
 40
0.7091780372474529
 40
0.7669294945449241
 40
0.8219775918531265
 40
0.8781750758903104
 40
0.9435359554003102
 40
1.0
 40
1.0
 40
1.0
 40
1.0
 10
326.8048819520362
 20
-28.61930061307934
 30
0.0
 10
326.8164186681975
 20
-29.46633462529888
 30
0.0
 10
326.8398611511989
 20
-31.18749861646128
 30
0.0
 10
327.0308143910408
 20
-34.05736595250505
 30
0.0
 10
327.3417637047503
 20
-37.05020850752733
 30
0.0
 10
327.7962707442467
 20
-40.13396034513165
 30
0.0
 10
328.4272710467223
 20
-43.27981308568472
 30
0.0
 10
329.1472788843396
 20
-45.9180050752774
 30
0.0
 10
329.8810513164727
 20
-48.00487625024009
 30
0.0
 10
330.5503186038729
 20
-49.58929568948691
 30
0.0
 10
331.3272830016148
 20
-51.10160774087959
 30
0.0
 10
332.3530162875121
 20
-52.71673486639113
 30
0.0
 10
333.7153004916572
 20
-54.33854109917654
 30
0.0
 10
335.4906210874771
 20
-55.77382420585045
 30
0.0
 10
337.5175120205037
 20
-56.7920793677969
 30
0.0
 10
339.6757538506002
 20
-57.34474663987622
 30
0.0
 10
341.9102248353057
 20
-57.47060150148099
 30
0.0
 10
344.2373818101188
 20
-57.19006813971595
 30
0.0
 10
346.5303982219235
 20
-56.54598846604923
 30
0.0
 10
347.9452883970944
 20
-55.77859878261241
 30
0.0
 10
348.6010689981362
 20
-55.42292505141512
 30
0.0
  0
SPLINE
  5
F9
330
1F
100
AcDbEntity
  8
0
  6
Continuous
 62
     7
370
    25
100
AcDbSpline
210
0.0
220
0.0
230
1.0
 70
     8
 71
     3
 72
    16
 73
    12
 74
     0
 42
0.00000001
 43
0.00000001
 40
0.0
 40
0.0
 40
0.0
 40
0.0
 40
0.0355966948072584
 40
0.1477184119475674
 40
0.2622434813533224
 40
0.3776636061583766
 40
0.4883883881503109
 40
0.6000768877170043
 40
0.7150852671270799
 40
0.8313656827388451
 40
1.0
 40
1.0
 40
1.0
 40
1.0
 10
328.6247349369165
 20
-20.82155926761858
 30
0.0
 10
328.5769405382238
 20
-20.84408092490624
 30
0.0
 10
328.3786043524321
 20
-20.93754082243253
 30
0.0
 10
328.0904273938755
 20
-21.23879390145988
 30
0.0
 10
327.7546668495239
 20
-21.73835637076895
 30
0.0
 10
327.478508098795
 20
-22.39349265398518
 30
0.0
 10
327.252568232561
 20
-23.18841140289757
 30
0.0
 10
327.0730540023263
 20
-24.12850579776315
 30
0.0
 10
326.9378079633296
 20
-25.23643790537343
 30
0.0
 10
326.8296505093807
 20
-26.68845876135818
 30
0.0
 10
326.8140911627182
 20
-27.90139326147535
 30
0.0
 10
326.8048819520362
 20
-28.61930061307934
 30
0.0
  0
LWPOLYLINE
  5
FA
330
1F
100
AcDbEntity
  8
0
  6
Continuous
 62
     7
370
    25
100
AcDbPolyline
 90
       95
 70
   128
 43
0.0
 10
292.1566496739
 20
-8.6173018734
 10
292.1061199053
 20
-6.9012269236
 10
291.9547562777
 20
-5.25115681
 10
291.7032348178
 20
-3.6744611465
 10
291.3526788816
 20
-2.1781818386
 10
290.9046541368
 20
-0.7690016329
 10
290.3611615709
 20
0.5467857297
 10
289.7246285535
 20
1.7633036235
 10
288.9978979956
 20
2.8751187841
 10
288.1842156522
 20
3.8772655753
 10
287.2872156264
 20
4.7652681661
 10
286.3109041378
 20
5.5351605214
 10
285.2596416308
 20
6.1835041151
 10
284.1381232986
 20
6.7074032873
 10
282.9513581147
 20
7.1045181771
 10
281.7046464602
 20
7.3730751729
 10
280.4035564522
 20
7.5118748342
 10
279.0538990743
 20
7.5202972479
 10
277.6617022242
 20
7.3983047974
 10
276.2331837909
 20
7.1464423306
 10
274.7747238846
 20
6.7658347266
 10
273.2928363411
 20
6.2581818711
 10
271.79413963
 20
5.6257510651
 10
270.2853272947
 20
4.8713668982
 10
268.7731380572
 20
3.998398633
 10
267.2643257218
 20
3.0107451579
 10
265.7656290108
 20
1.912817573
 10
264.2837414673
 20
0.7095194894
 10
262.8252815609
 20
-0.5937748716
 10
261.3967631276
 20
-1.9912446809
 10
260.0045662775
 20
-3.4766484991
 10
258.6549088997
 20
-5.0433521523
 10
257.3538188916
 20
-6.6843583615
 10
256.1071072372
 20
-8.3923379947
 10
254.9203420532
 20
-10.1596628001
 10
253.7988237211
 20
-11.9784394763
 10
252.747561214
 20
-13.8405449251
 10
251.7712497255
 20
-15.7376625314
 10
250.8742496996
 20
-17.6613193075
 10
250.0605673563
 20
-19.6029237354
 10
249.3338367984
 20
-21.5538041382
 10
248.697303781
 20
-23.5052474105
 10
248.153811215
 20
-25.448537933
 10
247.7057864703
 20
-27.3749964984
 10
247.355230534
 20
-29.2760190751
 10
247.1037090741
 20
-31.1431152348
 10
246.9523454466
 20
-32.9679460729
 10
246.901815678
 20
-34.7423614517
 10
246.9523454466
 20
-36.4584364016
 10
247.1037090741
 20
-38.1085065151
 10
247.355230534
 20
-39.6852021786
 10
247.7057864703
 20
-41.1814814866
 10
248.153811215
 20
-42.5906616923
 10
248.697303781
 20
-43.9064490549
 10
249.3338367984
 20
-45.1229669486
 10
250.0605673563
 20
-46.2347821093
 10
250.8742496996
 20
-47.2369289004
 10
251.7712497255
 20
-48.1249314912
 10
252.747561214
 20
-48.8948238466
 10
253.7988237211
 20
-49.5431674403
 10
254.9203420532
 20
-50.0670666124
 10
256.1071072372
 20
-50.4641815022
 10
257.3538188916
 20
-50.7327384981
 10
258.6549088997
 20
-50.8715381594
 10
260.0045662775
 20
-50.8799605731
 10
261.3967631276
 20
-50.7579681226
 10
262.8252815609
 20
-50.5061056558
 10
264.2837414673
 20
-50.1254980517
 10
265.7656290108
 20
-49.6178451963
 10
267.2643257218
 20
-48.9854143903
 10
268.7731380572
 20
-48.2310302233
 10
270.2853272947
 20
-47.3580619582
 10
271.79413963
 20
-46.3704084831
 10
273.2928363411
 20
-45.2724808982
 10
274.7747238846
 20
-44.0691828145
 10
276.2331837909
 20
-42.7658884536
 10
277.6617022242
 20
-41.3684186443
 10
279.0538990743
 20
-39.883014826
 10
280.4035564522
 20
-38.3163111729
 10
281.7046464602
 20
-36.6753049637
 10
282.9513581147
 20
-34.9673253305
 10
284.1381232987
 20
-33.200000525
 10
285.2596416308
 20
-31.3812238488
 10
286.3109041378
 20
-29.5191184001
 10
287.2872156264
 20
-27.6220007938
 10
288.1842156522
 20
-25.6983440176
 10
288.9978979956
 20
-23.7567395898
 10
289.7246285535
 20
-21.805859187
 10
290.3611615709
 20
-19.8544159147
 10
290.9046541368
 20
-17.9111253922
 10
291.3526788816
 20
-15.9846668268
 10
291.7032348178
 20
-14.0836442501
 10
291.9547562777
 20
-12.2165480903
 10
292.1061199053
 20
-10.3917172523
 10
292.1566496739
 20
-8.6173018734
  0
LWPOLYLINE
  5
FB
330
1F
100
AcDbEntity
  8
0
  6
Continuous
 62
     7
370
    25
100
AcDbPolyline
 90
       13
 70
   128
 43
0.0
 10
389.7373854776
 20
-64.9494615892
 10
389.686855709
 20
-63.2333866393
 10
389.5354920814
 20
-61.5833165258
 10
389.2839706216
 20
-60.0066208623
 10
388.9334146853
 20
-58.5103415544
 10
388.4853899406
 20
-57.1011613487
 10
387.9418973746
 20
-55.7853739861
 10
387.3053643572
 20
-54.5688560923
 10
386.5786337993
 20
-53.4570409317
 10
385.764951456
 20
-52.4548941405
 10
384.8679514301
 20
-51.5668915497
 10
383.8916399416
 20
-50.7969991944
 10
383.1086682018
 20
-50.2984277822
  0
LWPOLYLINE
  5
FC
330
1F
100
AcDbEntity
  8
0
  6
Continuous
 62
     7
370
    25
100
AcDbPolyline
 90
       37
 70
   128
 43
0.0
 10
351.1112687575
 20
-105.7255549745
 10
351.3795595248
 20
-105.875327156
 10
352.5010778569
 20
-106.3992263282
 10
353.6878430409
 20
-106.796341218
 10
354.9345546954
 20
-107.0648982139
 10
356.2356447034
 20
-107.2036978752
 10
357.5853020813
 20
-107.2121202888
 10
358.9774989314
 20
-107.0901278383
 10
360.4060173647
 20
-106.8382653716
 10
361.864477271
 20
-106.4576577675
 10
363.3463648145
 20
-105.950004912
 10
364.8450615256
 20
-105.3175741061
 10
366.3538738609
 20
-104.5631899391
 10
367.8660630984
 20
-103.690221674
 10
369.3748754337
 20
-102.7025681988
 10
370.8735721448
 20
-101.6046406139
 10
372.3554596883
 20
-100.4013425303
 10
373.8139195947
 20
-99.0980481693
 10
375.242438028
 20
-97.70057836
 10
376.6346348781
 20
-96.2151745418
 10
377.9842922559
 20
-94.6484708887
 10
379.2853822639
 20
-93.0074646794
 10
380.5320939184
 20
-91.2994850463
 10
381.7188591024
 20
-89.5321602408
 10
382.8403774345
 20
-87.7133835646
 10
383.8916399416
 20
-85.8512781159
 10
384.8679514301
 20
-83.9541605096
 10
385.764951456
 20
-82.0305037334
 10
386.5786337993
 20
-80.0888993056
 10
387.3053643572
 20
-78.1380189028
 10
387.9418973746
 20
-76.1865756304
 10
388.4853899406
 20
-74.243285108
 10
388.9334146853
 20
-72.3168265426
 10
389.2839706216
 20
-70.4158039658
 10
389.5354920814
 20
-68.5487078061
 10
389.686855709
 20
-66.7238769681
 10
389.7373854776
 20
-64.9494615892
  0
LWPOLYLINE
  5
FD
330
1F
100
AcDbEntity
  8
0
  6
Continuous
 62
     7
370
    25
100
AcDbPolyline
 90
       84
 70
   128
 43
0.0
 10
287.2069022056
 20
-11.4747302648
 10
287.1562741605
 20
-9.960108274
 10
287.0046800181
 20
-8.5126157974
 10
286.7529880958
 20
-7.1405439408
 10
286.4026400623
 20
-5.8517518077
 10
285.9556426793
 20
-4.6536214826
 10
285.4145563074
 20
-3.5530157475
 10
284.7824802403
 20
-2.5562387724
 10
284.0630349525
 20
-1.6690000056
 10
283.2603413614
 20
-0.8963814704
 10
282.3789972232
 20
-0.2428086557
 10
281.4240507974
 20
0.2879748325
 10
280.4009719305
 20
0.6929287145
 10
279.3156207258
 20
0.9697334512
 10
278.1742139765
 20
1.1168035299
 10
276.9832895572
 20
1.1332965468
 10
275.7496689752
 20
1.0191180312
 10
274.4804182973
 20
0.7749219874
 10
273.1828076766
 20
0.4021071481
 10
271.8642697092
 20
-0.0971910369
 10
270.532356861
 20
-0.720112633
 10
269.1946982084
 20
-1.4630896015
 10
267.8589557389
 20
-2.3218662378
 10
266.5327804645
 20
-3.2915235469
 10
265.223768597
 20
-4.3665074197
 10
263.9394180378
 20
-5.5406604459
 10
262.6870854306
 20
-6.8072571833
 10
261.4739440233
 20
-8.1590426805
 10
260.3069425798
 20
-9.5882740324
 10
259.1927655789
 20
-11.0867647315
 10
258.1377949255
 20
-12.6459315587
 10
257.1480733959
 20
-14.2568437476
 10
256.2292700254
 20
-15.910274139
 10
255.3866476365
 20
-17.5967520335
 10
254.625032694
 20
-19.3066174382
 10
253.9487876593
 20
-21.0300763992
 10
253.3617860026
 20
-22.7572570995
 10
252.8673900165
 20
-24.4782664044
 10
252.4684315561
 20
-26.1832465285
 10
252.1671958196
 20
-27.8624315001
 10
251.9654082579
 20
-29.5062030998
 10
251.8642246919
 20
-31.1051459526
 10
251.8642246919
 20
-32.6501014587
 10
251.9654082579
 20
-34.1322202529
 10
252.1671958196
 20
-35.5430128929
 10
252.4684315561
 20
-36.8743984862
 10
252.8673900165
 20
-38.1187509768
 10
253.3617860026
 20
-39.2689428263
 10
253.9487876593
 20
-40.3183858399
 10
254.625032694
 20
-41.261068903
 10
255.3866476365
 20
-42.0915924125
 10
256.2292700254
 20
-42.8051992049
 10
257.1480733959
 20
-43.3978018051
 10
258.1377949255
 20
-43.8660058391
 10
259.1927655789
 20
-44.2071294766
 10
260.3069425798
 20
-44.4192187922
 10
261.4739440233
 20
-44.5010589577
 10
262.6870854306
 20
-44.4521811998
 10
263.9394180378
 20
-44.2728654861
 10
265.223768597
 20
-43.9641389206
 10
266.5327804645
 20
-43.5277698613
 10
267.8589557389
 20
-42.9662577904
 10
269.1946982084
 20
-42.2828189984
 10
270.532356861
 20
-41.4813681607
 10
271.8642697092
 20
-40.5664959151
 10
273.1828076766
 20
-39.5434425671
 10
274.4804182973
 20
-38.4180680735
 10
275.7496689752
 20
-37.1968184776
 10
276.9832895572
 20
-35.8866889864
 10
278.1742139765
 20
-34.495183903
 10
279.3156207258
 20
-33.0302736426
 10
280.4009719305
 20
-31.5003490783
 10
281.4240507974
 20
-29.9141734797
 10
282.3789972232
 20
-28.2808323168
 10
283.2603413614
 20
-26.6096812199
 10
284.0630349525
 20
-24.9102923913
 10
284.7824802403
 20
-23.1923997761
 10
285.4145563074
 20
-21.4658433077
 10
285.9556426793
 20
-19.7405125453
 10
286.4026400623
 20
-18.0262900271
 10
286.7529880958
 20
-16.3329946646
 10
287.0046800181
 20
-14.6703255002
 10
287.1562741605
 20
-13.0478061523
 10
287.2069022056
 20
-11.4747302648
  0
LWPOLYLINE
  5
FE
330
1F
100
AcDbEntity
  8
0
  6
Continuous
 62
     7
370
    25
100
AcDbPolyline
 90
       75
 70
   128
 43
0.0
 10
395.3942397271
 20
-21.6798316626
 10
395.3432925215
 20
-20.2654704983
 10
395.1908179804
 20
-18.8024774472
 10
394.9379146865
 20
-17.3013934075
 10
394.5864048137
 20
-15.7730337242
 10
394.1388209987
 20
-14.228410264
 10
393.5983880932
 20
-12.6786520741
 10
392.9689999286
 20
-11.1349251979
 10
392.2551912611
 20
-9.6083522228
 10
391.4621050985
 20
-8.1099321422
 10
390.5954556448
 20
-6.6504611071
 10
389.6614871291
 20
-5.2404546396
 10
388.666928816
 20
-3.8900718688
 10
387.6189465209
 20
-2.6090423334
 10
386.5250909804
 20
-1.4065958806
 10
385.3932434485
 20
-0.2913961647
 10
384.2315589128
 20
0.7285217749
 10
383.0484073369
 20
1.6458094061
 10
381.852313355
 20
2.4538576504
 10
380.6518948518
 20
3.1468445017
 10
379.4558008699
 20
3.7197769738
 10
378.272649294
 20
4.1685270753
 10
377.1109647583
 20
4.4898615512
 10
375.9791172264
 20
4.6814651795
 10
374.8852616859
 20
4.7419574514
 10
373.8372793908
 20
4.6709025189
 10
372.8427210777
 20
4.4688123343
 10
371.908752562
 20
4.137142962
 10
371.0421031083
 20
3.6782840875
 10
370.2490169457
 20
3.0955417995
 10
369.5352082782
 20
2.3931147695
 10
368.9058201136
 20
1.5760640003
 10
368.3653872081
 20
0.6502763616
 10
367.9178033931
 20
-0.3775778257
 10
367.5662935203
 20
-1.5000928484
 10
367.3133902264
 20
-2.7091809602
 10
367.1609156853
 20
-3.9961306534
 10
367.1099684797
 20
-5.3516694261
 10
367.1609156853
 20
-6.7660305904
 10
367.3133902264
 20
-8.2290236416
 10
367.5662935203
 20
-9.7301076812
 10
367.9178033931
 20
-11.2584673645
 10
368.3653872081
 20
-12.8030908247
 10
368.9058201136
 20
-14.3528490146
 10
369.5352082782
 20
-15.8965758909
 10
370.2490169457
 20
-17.4231488659
 10
371.0421031083
 20
-18.9215689465
 10
371.908752562
 20
-20.3810399817
 10
372.8427210777
 20
-21.7910464491
 10
373.8372793908
 20
-23.1414292199
 10
374.8852616859
 20
-24.4224587553
 10
375.9791172264
 20
-25.6249052081
 10
377.1109647583
 20
-26.740104924
 10
378.272649294
 20
-27.7600228637
 10
379.4558008699
 20
-28.6773104948
 10
380.6518948518
 20
-29.4853587391
 10
381.852313355
 20
-30.1783455904
 10
383.0484073369
 20
-30.7512780626
 10
384.2315589128
 20
-31.200028164
 10
385.3932434485
 20
-31.52136264
 10
386.5250909804
 20
-31.7129662682
 10
387.6189465209
 20
-31.7734585401
 10
388.666928816
 20
-31.7024036076
 10
389.6614871291
 20
-31.500313423
 10
390.5954556448
 20
-31.1686440507
 10
391.4621050985
 20
-30.7097851762
 10
392.2551912611
 20
-30.1270428882
 10
392.9689999286
 20
-29.4246158582
 10
393.5983880932
 20
-28.607565089
 10
394.1388209987
 20
-27.6817774503
 10
394.5864048137
 20
-26.6539232631
 10
394.9379146865
 20
-25.5314082403
 10
395.1908179804
 20
-24.3223201286
 10
395.3432925215
 20
-23.0353704353
 10
395.3942397271
 20
-21.6798316626
  0
LWPOLYLINE
  5
FF
330
1F
100
AcDbEntity
  8
0
  6
Continuous
 62
     7
370
    25
100
AcDbPolyline
 90
       68
 70
   128
 43
0.0
 10
392.7779446367
 20
-20.1694766557
 10
392.7272998862
 20
-18.8939078679
 10
392.5758107026
 20
-17.5710756402
 10
392.3248083782
 20
-16.2126050698
 10
391.9764987304
 20
-14.8304344448
 10
391.5339427171
 20
-13.4367103304
 10
391.0010295364
 20
-12.0436808242
 10
390.3824424484
 20
-10.6635879197
 10
389.6836176188
 20
-9.3085599229
 10
388.9106963452
 20
-7.9905048685
 10
388.0704710876
 20
-6.7210058718
 10
387.1703257758
 20
-5.5112193356
 10
386.2181709192
 20
-4.3717769075
 10
385.2223740888
 20
-3.3126920485
 10
384.191686383
 20
-2.3432720344
 10
383.1351655225
 20
-1.4720361631
 10
382.0620962505
 20
-0.7066408869
 10
380.9819087384
 20
-0.053812527
 10
379.9040957128
 20
0.4807118377
 10
378.8381290335
 20
0.8922347876
 10
377.7933764539
 20
1.1771398444
 10
376.7790192972
 20
1.3329232522
 10
375.8039717707
 20
1.3582159807
 10
374.8768026269
 20
1.2527957566
 10
374.0056598618
 20
1.0175890166
 10
373.1981991092
 20
0.654662766
 10
372.4615163634
 20
0.1672064137
 10
371.8020856186
 20
-0.4404962564
 10
371.2257019761
 20
-1.1631047312
 10
370.737430716
 20
-1.9942687017
 10
370.3415627836
 20
-2.9266838688
 10
370.0415770807
 20
-3.9521561346
 10
369.8401098924
 20
-5.061673612
 10
369.7389317195
 20
-6.2454858214
 10
369.7389317195
 20
-7.4931893786
 10
369.8401098924
 20
-8.7938194199
 10
370.0415770807
 20
-10.1359459617
 10
370.3415627836
 20
-11.5077743477
 10
370.737430716
 20
-12.8972489007
 10
371.2257019761
 20
-14.2921588684
 10
371.8020856186
 20
-15.6802457318
 10
372.4615163634
 20
-17.0493109337
 10
373.1981991092
 20
-18.3873230799
 10
374.0056598618
 20
-19.6825236714
 10
374.8768026269
 20
-20.9235304389
 10
375.8039717707
 20
-22.0994373704
 10
376.7790192972
 20
-23.1999105535
 10
377.7933764539
 20
-24.2152789901
 10
378.8381290335
 20
-25.1366195861
 10
379.9040957128
 20
-25.955835567
 10
380.9819087384
 20
-26.6657276335
 10
382.0620962505
 20
-27.2600572286
 10
383.1351655225
 20
-27.7336013622
 10
384.191686383
 20
-28.0821985117
 10
385.2223740888
 20
-28.3027851927
 10
386.2181709192
 20
-28.3934228815
 10
387.1703257758
 20
-28.3533150509
 10
388.0704710876
 20
-28.1828141699
 10
388.9106963452
 20
-27.8834186063
 10
389.6836176188
 20
-27.4577594593
 10
390.3824424484
 20
-26.9095774366
 10
391.0010295364
 20
-26.2436899815
 10
391.5339427171
 20
-25.4659489371
 10
391.9764987304
 20
-24.5831891194
 10
392.3248083782
 20
-23.6031682537
 10
392.5758107026
 20
-22.5344987984
 10
392.7272998862
 20
-21.3865722592
 10
392.7779446367
 20
-20.1694766557
  0
LWPOLYLINE
  5
100
330
1F
100
AcDbEntity
  8
0
  6
Continuous
 62
     7
370
    25
100
AcDbPolyline
 90
       24
 70
   128
 43
0.0
 10
282.1860869254
 20
27.3131478508
 10
282.1682517277
 20
27.6014304878
 10
282.0261149872
 20
28.1721271585
 10
281.7447350004
 20
28.7253374877
 10
281.3298398524
 20
29.2497997083
 10
280.7898756119
 20
29.7348372818
 10
280.1358343937
 20
30.1705762422
 10
279.381030591
 20
30.5481462006
 10
278.5408298325
 20
30.8598609216
 10
277.6323361826
 20
31.0993747924
 10
276.6740439523
 20
31.2618120012
 10
275.6854612078
 20
31.3438657949
 10
274.686712643
 20
31.3438657949
 10
273.6981298985
 20
31.2618120012
 10
272.7398376682
 20
31.0993747924
 10
271.8313440184
 20
30.8598609216
 10
270.9911432598
 20
30.5481462006
 10
270.2363394571
 20
30.1705762422
 10
269.5822982389
 20
29.7348372818
 10
269.0423339984
 20
29.2497997083
 10
268.6274388504
 20
28.7253374877
 10
268.3460588636
 20
28.1721271585
 10
268.2039221231
 20
27.6014304878
 10
268.1860869254
 20
27.3131478508
  0
ENDSEC
  0
SECTION
  2
OBJECTS
  0
DICTIONARY
  5
C
330
0
100
AcDbDictionary
281
     1
  3
ACAD_GROUP
350
D
  3
ACAD_LAYOUT
350
1A
  3
ACAD_MLINESTYLE
350
17
  3
ACAD_PLOTSETTINGS
350
19
  3
ACAD_PLOTSTYLENAME
350
E
  3
ACAD_SCALELIST
350
47
  3
DWGPROPS
350
101
  0
DICTIONARY
  5
D
102
{ACAD_REACTORS
330
C
102
}
330
C
100
AcDbDictionary
281
     1
  0
DICTIONARY
  5
1A
102
{ACAD_REACTORS
330
C
102
}
330
C
100
AcDbDictionary
281
     1
  3
Layout1
350
1E
  3
Layout2
350
26
  3
Model
350
22
  0
DICTIONARY
  5
17
102
{ACAD_REACTORS
330
C
102
}
330
C
100
AcDbDictionary
281
     1
  3
Standard
350
18
  0
DICTIONARY
  5
19
102
{ACAD_REACTORS
330
C
102
}
330
C
100
AcDbDictionary
281
     1
  0
ACDBDICTIONARYWDFLT
  5
E
102
{ACAD_REACTORS
330
C
102
}
330
C
100
AcDbDictionary
281
     1
  3
Normal
350
F
100
AcDbDictionaryWithDefault
340
F
  0
DICTIONARY
  5
47
102
{ACAD_REACTORS
330
C
102
}
330
C
100
AcDbDictionary
281
     1
  3
A0
350
48
  3
A1
350
49
  3
A2
350
4A
  3
A3
350
4B
  3
A4
350
4C
  3
A5
350
4D
  3
A6
350
4E
  3
A7
350
4F
  3
A8
350
50
  3
A9
350
51
  3
B0
350
52
  3
B1
350
53
  3
B2
350
54
  3
B3
350
55
  3
B4
350
56
  3
B5
350
57
  3
B6
350
58
  3
B7
350
59
  3
B8
350
5A
  3
B9
350
5B
  3
C0
350
5C
  3
C1
350
5D
  3
C2
350
5E
  3
C3
350
5F
  3
C4
350
60
  3
C5
350
61
  3
C6
350
62
  3
C7
350
63
  3
C8
350
64
  3
C9
350
65
  3
D0
350
66
  3
D1
350
67
  3
D2
350
68
  0
XRECORD
  5
101
102
{ACAD_REACTORS
330
C
102
}
330
C
100
AcDbXrecord
280
     1
  1
DWGPROPS COOKIE
  2

  3

  4

  6

  7

  8
b.kav
  9

300
=
301
=
302
=
303
=
304
=
305
=
306
=
307
=
308
=
309
=
 40
0.0
 41
2459741.481059364
 42
2459741.481059537
  1

 90
        0
  0
LAYOUT
  5
1E
102
{ACAD_REACTORS
330
1A
102
}
330
1A
100
AcDbPlotSettings
  1

  2
none_device
  4

  6

 40
0.0
 41
0.0
 42
0.0
 43
0.0
 44
0.0
 45
0.0
 46
0.0
 47
0.0
 48
0.0
 49
0.0
140
0.0
141
0.0
142
1.0
143
1.0
 70
   688
 72
     1
 73
     0
 74
     5
  7

 75
    16
147
1.0
148
0.0
149
0.0
100
AcDbLayout
  1
Layout1
 70
     1
 71
     1
 10
0.0
 20
0.0
 11
420.0
 21
297.0
 12
0.0
 22
0.0
 32
0.0
 14
1.0000000000E+20
 24
1.0000000000E+20
 34
1.0000000000E+20
 15
-1.0000000000E+20
 25
-1.0000000000E+20
 35
-1.0000000000E+20
146
0.0
 13
0.0
 23
0.0
 33
0.0
 16
1.0
 26
0.0
 36
0.0
 17
0.0
 27
1.0
 37
0.0
 76
     0
330
1B
  0
LAYOUT
  5
26
102
{ACAD_REACTORS
330
1A
102
}
330
1A
100
AcDbPlotSettings
  1

  2
none_device
  4

  6

 40
0.0
 41
0.0
 42
0.0
 43
0.0
 44
0.0
 45
0.0
 46
0.0
 47
0.0
 48
0.0
 49
0.0
140
0.0
141
0.0
142
1.0
143
1.0
 70
   688
 72
     1
 73
     0
 74
     5
  7

 75
    16
147
1.0
148
0.0
149
0.0
100
AcDbLayout
  1
Layout2
 70
     1
 71
     2
 10
0.0
 20
0.0
 11
0.0
 21
0.0
 12
0.0
 22
0.0
 32
0.0
 14
0.0
 24
0.0
 34
0.0
 15
0.0
 25
0.0
 35
0.0
146
0.0
 13
0.0
 23
0.0
 33
0.0
 16
1.0
 26
0.0
 36
0.0
 17
0.0
 27
1.0
 37
0.0
 76
     0
330
23
  0
LAYOUT
  5
22
102
{ACAD_REACTORS
330
1A
102
}
330
1A
100
AcDbPlotSettings
  1

  2
none_device
  4
Letter_(8.50_x_11.00_Inches)
  6

 40
6.35
 41
6.35
 42
6.35000508
 43
6.35000508
 44
215.9
 45
279.4
 46
0.0
 47
0.0
 48
0.0
 49
0.0
140
0.0
141
0.0
142
1.0
143
1.0
 70
  1712
 72
     1
 73
     0
 74
     0
  7

 75
     0
147
1.0
148
0.0
149
0.0
100
AcDbLayout
  1
Model
 70
     1
 71
     0
 10
0.0
 20
0.0
 11
279.4
 21
215.9
 12
0.0
 22
0.0
 32
0.0
 14
0.0
 24
0.0
 34
0.0
 15
279.4
 25
215.9
 35
0.0
146
0.0
 13
0.0
 23
0.0
 33
0.0
 16
1.0
 26
0.0
 36
0.0
 17
0.0
 27
1.0
 37
0.0
 76
     0
330
1F
331
29
  0
MLINESTYLE
  5
18
102
{ACAD_REACTORS
330
17
102
}
330
17
100
AcDbMlineStyle
  2
Standard
 70
     0
  3

 62
   256
 51
90.0
 52
90.0
 71
     2
 49
0.5
 62
   256
  6
BYLAYER
 49
-0.5
 62
   256
  6
BYLAYER
  0
ACDBPLACEHOLDER
  5
F
102
{ACAD_REACTORS
330
E
102
}
330
E
  0
SCALE
  5
48
102
{ACAD_REACTORS
330
47
102
}
330
47
100
AcDbScale
 70
     0
300
1:1
140
1.0
141
1.0
290
     1
  0
SCALE
  5
49
102
{ACAD_REACTORS
330
47
102
}
330
47
100
AcDbScale
 70
     0
300
1:2
140
1.0
141
2.0
290
     0
  0
SCALE
  5
4A
102
{ACAD_REACTORS
330
47
102
}
330
47
100
AcDbScale
 70
     0
300
1:4
140
1.0
141
4.0
290
     0
  0
SCALE
  5
4B
102
{ACAD_REACTORS
330
47
102
}
330
47
100
AcDbScale
 70
     0
300
1:5
140
1.0
141
5.0
290
     0
  0
SCALE
  5
4C
102
{ACAD_REACTORS
330
47
102
}
330
47
100
AcDbScale
 70
     0
300
1:8
140
1.0
141
8.0
290
     0
  0
SCALE
  5
4D
102
{ACAD_REACTORS
330
47
102
}
330
47
100
AcDbScale
 70
     0
300
1:10
140
1.0
141
10.0
290
     0
  0
SCALE
  5
4E
102
{ACAD_REACTORS
330
47
102
}
330
47
100
AcDbScale
 70
     0
300
1:16
140
1.0
141
16.0
290
     0
  0
SCALE
  5
4F
102
{ACAD_REACTORS
330
47
102
}
330
47
100
AcDbScale
 70
     0
300
1:20
140
1.0
141
20.0
290
     0
  0
SCALE
  5
50
102
{ACAD_REACTORS
330
47
102
}
330
47
100
AcDbScale
 70
     0
300
1:30
140
1.0
141
30.0
290
     0
  0
SCALE
  5
51
102
{ACAD_REACTORS
330
47
102
}
330
47
100
AcDbScale
 70
     0
300
1:40
140
1.0
141
40.0
290
     0
  0
SCALE
  5
52
102
{ACAD_REACTORS
330
47
102
}
330
47
100
AcDbScale
 70
     0
300
1:50
140
1.0
141
50.0
290
     0
  0
SCALE
  5
53
102
{ACAD_REACTORS
330
47
102
}
330
47
100
AcDbScale
 70
     0
300
1:100
140
1.0
141
100.0
290
     0
  0
SCALE
  5
54
102
{ACAD_REACTORS
330
47
102
}
330
47
100
AcDbScale
 70
     0
300
2:1
140
2.0
141
1.0
290
     0
  0
SCALE
  5
55
102
{ACAD_REACTORS
330
47
102
}
330
47
100
AcDbScale
 70
     0
300
4:1
140
4.0
141
1.0
290
     0
  0
SCALE
  5
56
102
{ACAD_REACTORS
330
47
102
}
330
47
100
AcDbScale
 70
     0
300
8:1
140
8.0
141
1.0
290
     0
  0
SCALE
  5
57
102
{ACAD_REACTORS
330
47
102
}
330
47
100
AcDbScale
 70
     0
300
10:1
140
10.0
141
1.0
290
     0
  0
SCALE
  5
58
102
{ACAD_REACTORS
330
47
102
}
330
47
100
AcDbScale
 70
     0
300
100:1
140
100.0
141
1.0
290
     0
  0
SCALE
  5
59
102
{ACAD_REACTORS
330
47
102
}
330
47
100
AcDbScale
 70
     0
300
1/128" = 1'-0"
140
0.0078125
141
12.0
290
     0
  0
SCALE
  5
5A
102
{ACAD_REACTORS
330
47
102
}
330
47
100
AcDbScale
 70
     0
300
1/64" = 1'-0"
140
0.015625
141
12.0
290
     0
  0
SCALE
  5
5B
102
{ACAD_REACTORS
330
47
102
}
330
47
100
AcDbScale
 70
     0
300
1/32" = 1'-0"
140
0.03125
141
12.0
290
     0
  0
SCALE
  5
5C
102
{ACAD_REACTORS
330
47
102
}
330
47
100
AcDbScale
 70
     0
300
1/16" = 1'-0"
140
0.0625
141
12.0
290
     0
  0
SCALE
  5
5D
102
{ACAD_REACTORS
330
47
102
}
330
47
100
AcDbScale
 70
     0
300
3/32" = 1'-0"
140
0.09375
141
12.0
290
     0
  0
SCALE
  5
5E
102
{ACAD_REACTORS
330
47
102
}
330
47
100
AcDbScale
 70
     0
300
1/8" = 1'-0"
140
0.125
141
12.0
290
     0
  0
SCALE
  5
5F
102
{ACAD_REACTORS
330
47
102
}
330
47
100
AcDbScale
 70
     0
300
3/16" = 1'-0"
140
0.1875
141
12.0
290
     0
  0
SCALE
  5
60
102
{ACAD_REACTORS
330
47
102
}
330
47
100
AcDbScale
 70
     0
300
1/4" = 1'-0"
140
0.25
141
12.0
290
     0
  0
SCALE
  5
61
102
{ACAD_REACTORS
330
47
102
}
330
47
100
AcDbScale
 70
     0
300
3/8" = 1'-0"
140
0.375
141
12.0
290
     0
  0
SCALE
  5
62
102
{ACAD_REACTORS
330
47
102
}
330
47
100
AcDbScale
 70
     0
300
1/2" = 1'-0"
140
0.5
141
12.0
290
     0
  0
SCALE
  5
63
102
{ACAD_REACTORS
330
47
102
}
330
47
100
AcDbScale
 70
     0
300
3/4" = 1'-0"
140
0.75
141
12.0
290
     0
  0
SCALE
  5
64
102
{ACAD_REACTORS
330
47
102
}
330
47
100
AcDbScale
 70
     0
300
1" = 1'-0"
140
1.0
141
12.0
290
     0
  0
SCALE
  5
65
102
{ACAD_REACTORS
330
47
102
}
330
47
100
AcDbScale
 70
     0
300
1-1/2" = 1'-0"
140
1.5
141
12.0
290
     0
  0
SCALE
  5
66
102
{ACAD_REACTORS
330
47
102
}
330
47
100
AcDbScale
 70
     0
300
3" = 1'-0"
140
3.0
141
12.0
290
     0
  0
SCALE
  5
67
102
{ACAD_REACTORS
330
47
102
}
330
47
100
AcDbScale
 70
     0
300
6" = 1'-0"
140
6.0
141
12.0
290
     0
  0
SCALE
  5
68
102
{ACAD_REACTORS
330
47
102
}
330
47
100
AcDbScale
 70
     0
300
1'-0" = 1'-0"
140
12.0
141
12.0
290
     0
  0
ENDSEC
  0
EOF
